0
SECTION
2
HEADER
9
$ACADVER
1
AC1004
9
$INSBASE
10
0.0
20
0.0
9
$EXTMIN
10
-10.0
20
-50.0
9
$EXTMAX
10
220.0
20
50.0
9
$LIMMIN
10
-9.184627
20
4.296983
9
$LIMMAX
10
44.815373
20
28.296983
9
$VIEWCTR
10
6.0
20
4.5
9
$VIEWSIZE
40
 9
9
$SNAPMODE
70
 1
9
$SNAPUNIT
10
0.0625
20
0.0625
9
$SNAPBASE
10
0.0
20
0.0
9
$SNAPANG
50
 0
9
$SNAPSTYLE
70
 0
9
$SNAPISOPAIR
70
 0
9
$GRIDMODE
70
 0
9
$GRIDUNIT
10
0.0625
20
0.0625
9
$ORTHOMODE
70
 0
9
$REGENMODE
70
 1
9
$FILLMODE
70
 1
9
$QTEXTMODE
70
 0
9
$DRAGMODE
70
 2
9
$LTSCALE
40
0.44
9
$OSMODE
70
 0
9
$ATTMODE
70
 1
9
$TEXTSIZE
40
0.2
9
$TRACEWID
40
0.05
9
$TEXTSTYLE
7
STANDARD
9
$CLAYER
8
LAYER01
9
$CELTYPE
6
CONTINUOUS
9
$CECOLOR
62
 7
9
$DIMSCALE
40
 1
9
$DIMASZ
40
0.18
9
$DIMEXO
40
0.0625
9
$DIMDLI
40
0.38
9
$DIMRND
40
 0
9
$DIMDLE
40
 0
9
$DIMEXE
40
0.18
9
$DIMTP
40
 0
9
$DIMTM
40
 0
9
$DIMTXT
40
0.18
9
$DIMCEN
40
0.09
9
$DIMTSZ
40
 0
9
$DIMTOL
70
 0
9
$DIMLIM
70
 0
9
$DIMTIH
70
 1
9
$DIMTOH
70
 1
9
$DIMSE1
70
 0
9
$DIMSE2
70
 0
9
$DIMTAD
70
 0
9
$DIMZIN
70
 0
9
$DIMBLK
1

9
$DIMASO
70
 1
9
$DIMSHO
70
 1
9
$DIMPOST
1

9
$DIMAPOST
1

9
$DIMALT
70
 0
9
$DIMALTD
70
 2
9
$DIMALTF
40
25.4
9
$DIMLFAC
40
 1
9
$LUNITS
70
 2
9
$LUPREC
70
 4
9
$AXISMODE
70
 0
9
$AXISUNIT
10
0.0
20
0.0
9
$SKETCHINC
40
0.1
9
$FILLETRAD
40
0.125
9
$AUNITS
70
 0
9
$AUPREC
70
 0
9
$MENU
1
acad
9
$ELEVATION
40
 0
9
$THICKNESS
40
 0
9
$VIEWDIR
10
0.0
20
0.0
30
1.0
9
$LIMCHECK
70
 0
9
$BLIPMODE
70
 1
9
$CHAMFERA
40
0.5
9
$CHAMFERB
40
0.5
9
$FASTZOOM
70
 1
9
$SKPOLY
70
 0
9
$TDCREATE
40
 0
9
$TDUPDATE
40
 0
9
$TDINDWG
40
 0
9
$TDUSRTIMER
40
 0
9
$USRTIMER
70
 1
9
$ANGBASE
50
 0
9
$ANGDIR
70
 0
9
$PDMODE
70
 0
9
$PDSIZE
40
 0
9
$PLINEWID
40
0.008
9
$COORDS
70
 2
9
$SPLFRAME
70
 0
9
$SPLINESEGS
70
 10
9
$ATTDIA
70
 0
9
$ATTREQ
70
 1
9
$USERI1
70
 0
9
$USERI2
70
 0
9
$USERI3
70
 0
9
$USERI4
70
 0
9
$USERI5
70
 0
9
$USERR1
40
 0
9
$USERR2
40
 0
9
$USERR3
40
 0
9
$USERR4
40
 0
9
$USERR5
40
 0
0
ENDSEC
0
SECTION
2
TABLES
0
TABLE
2
VPORT
5
 10
100
AcDbSymbolTable
70
 10
0
VPORT
5
 11
100
AcDbSymbolTableRecord
100
AcDbViewportTableRecord
2
*ACTIVE
70
 0
10
0.0
20
0.0
11
2.0
21
2.0
12
0.0
22
0.0
13
0.0
23
0.0
14
0.0
24
0.0
15
0.0
25
0.0
16
0.0
26
0.0
36
0.0
17
0.0
27
0.0
37
0.0
40
0.0
41
0.0
42
0.0
43
0.0
44
0.0
50
0.0
51
0.0
71
 0
72
 0
73
 0
74
 0
75
 0
76
 0
77
 0
78
 0
0
ENDTAB
0
TABLE
2
LTYPE
5
 50
100
AcDbSymbolTable
70
10
0
LTYPE
5
 100
100
AcDbSymbolTableRecord
100
AcDbLinetypeTableRecord
2
CONT
70
 0
3
Solid Line __________
72
 65
73
 0
40
0.0
0
LTYPE
5
 101
100
AcDbSymbolTableRecord
100
AcDbLinetypeTableRecord
2
HIDDEN
70
 0
3
Cache __ __ __ __ __ __ __
72
 65
73
 2
40
9.525
49
6.35
49
-3.175
0
LTYPE
5
 102
100
AcDbSymbolTableRecord
100
AcDbLinetypeTableRecord
2
AXIS
70
 0
3
Centre ____ _ ____ _ ____
72
 65
73
 4
40
50.8
49
31.75
49
-6.35
49
6.35
49
-6.35
0
ENDTAB
0
TABLE
2
LAYER
5
 25
100
AcDbSymbolTable
70
10
0
LAYER
5
 30
100
AcDbSymbolTableRecord
100
AcDbLayerTableRecord
2
Layer01
70
 0
62
 7
6
CONT
0
LAYER
5
 31
100
AcDbSymbolTableRecord
100
AcDbLayerTableRecord
2
TALON
70
 0
62
 10
6
CONT
0
LAYER
5
 32
100
AcDbSymbolTableRecord
100
AcDbLayerTableRecord
2
AXIS
70
 0
62
 10
6
AXIS
0
LAYER
5
 33
100
AcDbSymbolTableRecord
100
AcDbLayerTableRecord
2
COFFR
70
 0
62
 180
6
CONT
0
LAYER
5
 34
100
AcDbSymbolTableRecord
100
AcDbLayerTableRecord
2
LONG
70
 0
62
 210
6
CONT
0
LAYER
5
 35
100
AcDbSymbolTableRecord
100
AcDbLayerTableRecord
2
TROU
70
 0
62
 195
6
CONT
0
ENDTAB
0
ENDSEC
0
SECTION
2
ENTITIES
0
POLYLINE
5
 501
100
AcDbEntity
8
Layer01
66
 1
100
AcDb2dPolyline
70
 0
0
VERTEX
100
AcDbVertex
100
AcDb2dVertex
8
Layer01
10
407.0
20
3.7037
30
0.0
0
VERTEX
100
AcDbVertex
100
AcDb2dVertex
8
Layer01
10
406.593005
20
3.948067
30
0.0
0
VERTEX
100
AcDbVertex
100
AcDb2dVertex
8
Layer01
10
406.18601
20
4.163878
30
0.0
0
VERTEX
100
AcDbVertex
100
AcDb2dVertex
8
Layer01
10
405.779016
20
4.354435
30
0.0
0
VERTEX
100
AcDbVertex
100
AcDb2dVertex
8
Layer01
10
405.372021
20
4.522797
30
0.0
0
VERTEX
100
AcDbVertex
100
AcDb2dVertex
8
Layer01
10
404.965026
20
4.671787
30
0.0
0
VERTEX
100
AcDbVertex
100
AcDb2dVertex
8
Layer01
10
404.558031
20
4.804004
30
0.0
0
VERTEX
100
AcDbVertex
100
AcDb2dVertex
8
Layer01
10
404.151037
20
4.92183
30
0.0
0
VERTEX
100
AcDbVertex
100
AcDb2dVertex
8
Layer01
10
403.744042
20
5.02744
30
0.0
0
VERTEX
100
AcDbVertex
100
AcDb2dVertex
8
Layer01
10
403.337047
20
5.122806
30
0.0
0
VERTEX
100
AcDbVertex
100
AcDb2dVertex
8
Layer01
10
402.930052
20
5.209711
30
0.0
0
VERTEX
100
AcDbVertex
100
AcDb2dVertex
8
Layer01
10
402.523009
20
5.289767
30
0.0
0
VERTEX
100
AcDbVertex
100
AcDb2dVertex
8
Layer01
10
402.116014
20
5.364382
30
0.0
0
VERTEX
100
AcDbVertex
100
AcDb2dVertex
8
Layer01
10
401.70902
20
5.434828
30
0.0
0
VERTEX
100
AcDbVertex
100
AcDb2dVertex
8
Layer01
10
401.302025
20
5.502211
30
0.0
0
VERTEX
100
AcDbVertex
100
AcDb2dVertex
8
Layer01
10
400.89503
20
5.567491
30
0.0
0
VERTEX
100
AcDbVertex
100
AcDb2dVertex
8
Layer01
10
400.488035
20
5.631488
30
0.0
0
VERTEX
100
AcDbVertex
100
AcDb2dVertex
8
Layer01
10
400.081041
20
5.694892
30
0.0
0
VERTEX
100
AcDbVertex
100
AcDb2dVertex
8
Layer01
10
399.674046
20
5.758272
30
0.0
0
VERTEX
100
AcDbVertex
100
AcDb2dVertex
8
Layer01
10
399.267051
20
5.822082
30
0.0
0
VERTEX
100
AcDbVertex
100
AcDb2dVertex
8
Layer01
10
398.860056
20
5.886676
30
0.0
0
VERTEX
100
AcDbVertex
100
AcDb2dVertex
8
Layer01
10
398.453013
20
5.952317
30
0.0
0
VERTEX
100
AcDbVertex
100
AcDb2dVertex
8
Layer01
10
398.046018
20
6.01916
30
0.0
0
VERTEX
100
AcDbVertex
100
AcDb2dVertex
8
Layer01
10
397.639023
20
6.087303
30
0.0
0
VERTEX
100
AcDbVertex
100
AcDb2dVertex
8
Layer01
10
397.232029
20
6.156769
30
0.0
0
VERTEX
100
AcDbVertex
100
AcDb2dVertex
8
Layer01
10
396.825034
20
6.22752
30
0.0
0
VERTEX
100
AcDbVertex
100
AcDb2dVertex
8
Layer01
10
396.418039
20
6.299464
30
0.0
0
VERTEX
100
AcDbVertex
100
AcDb2dVertex
8
Layer01
10
396.011044
20
6.372469
30
0.0
0
VERTEX
100
AcDbVertex
100
AcDb2dVertex
8
Layer01
10
395.60405
20
6.446364
30
0.0
0
VERTEX
100
AcDbVertex
100
AcDb2dVertex
8
Layer01
10
395.197055
20
6.520957
30
0.0
0
VERTEX
100
AcDbVertex
100
AcDb2dVertex
8
Layer01
10
394.79006
20
6.596034
30
0.0
0
VERTEX
100
AcDbVertex
100
AcDb2dVertex
8
Layer01
10
394.383017
20
6.669768
30
0.0
0
VERTEX
100
AcDbVertex
100
AcDb2dVertex
8
Layer01
10
393.976022
20
6.743658
30
0.0
0
VERTEX
100
AcDbVertex
100
AcDb2dVertex
8
Layer01
10
393.569027
20
6.817619
30
0.0
0
VERTEX
100
AcDbVertex
100
AcDb2dVertex
8
Layer01
10
393.162033
20
6.891563
30
0.0
0
VERTEX
100
AcDbVertex
100
AcDb2dVertex
8
Layer01
10
392.755038
20
6.965415
30
0.0
0
VERTEX
100
AcDbVertex
100
AcDb2dVertex
8
Layer01
10
392.348043
20
7.039113
30
0.0
0
VERTEX
100
AcDbVertex
100
AcDb2dVertex
8
Layer01
10
391.941048
20
7.112615
30
0.0
0
VERTEX
100
AcDbVertex
100
AcDb2dVertex
8
Layer01
10
391.534054
20
7.185903
30
0.0
0
VERTEX
100
AcDbVertex
100
AcDb2dVertex
8
Layer01
10
391.127059
20
7.258982
30
0.0
0
VERTEX
100
AcDbVertex
100
AcDb2dVertex
8
Layer01
10
390.720064
20
7.33189
30
0.0
0
VERTEX
100
AcDbVertex
100
AcDb2dVertex
8
Layer01
10
390.312997
20
7.399758
30
0.0
0
VERTEX
100
AcDbVertex
100
AcDb2dVertex
8
Layer01
10
389.906002
20
7.467994
30
0.0
0
VERTEX
100
AcDbVertex
100
AcDb2dVertex
8
Layer01
10
389.499007
20
7.537118
30
0.0
0
VERTEX
100
AcDbVertex
100
AcDb2dVertex
8
Layer01
10
389.092012
20
7.607654
30
0.0
0
VERTEX
100
AcDbVertex
100
AcDb2dVertex
8
Layer01
10
388.685017
20
7.680127
30
0.0
0
VERTEX
100
AcDbVertex
100
AcDb2dVertex
8
Layer01
10
388.278023
20
7.755057
30
0.0
0
VERTEX
100
AcDbVertex
100
AcDb2dVertex
8
Layer01
10
387.871028
20
7.832943
30
0.0
0
VERTEX
100
AcDbVertex
100
AcDb2dVertex
8
Layer01
10
387.464033
20
7.914257
30
0.0
0
VERTEX
100
AcDbVertex
100
AcDb2dVertex
8
Layer01
10
387.057038
20
7.999428
30
0.0
0
VERTEX
100
AcDbVertex
100
AcDb2dVertex
8
Layer01
10
386.650044
20
8.08883
30
0.0
0
VERTEX
100
AcDbVertex
100
AcDb2dVertex
8
Layer01
10
386.243
20
8.190217
30
0.0
0
VERTEX
100
AcDbVertex
100
AcDb2dVertex
8
Layer01
10
385.836006
20
8.295817
30
0.0
0
VERTEX
100
AcDbVertex
100
AcDb2dVertex
8
Layer01
10
385.429011
20
8.405256
30
0.0
0
VERTEX
100
AcDbVertex
100
AcDb2dVertex
8
Layer01
10
385.022016
20
8.518096
30
0.0
0
VERTEX
100
AcDbVertex
100
AcDb2dVertex
8
Layer01
10
384.615021
20
8.633859
30
0.0
0
VERTEX
100
AcDbVertex
100
AcDb2dVertex
8
Layer01
10
384.208027
20
8.752035
30
0.0
0
VERTEX
100
AcDbVertex
100
AcDb2dVertex
8
Layer01
10
383.801032
20
8.872097
30
0.0
0
VERTEX
100
AcDbVertex
100
AcDb2dVertex
8
Layer01
10
383.394037
20
8.993509
30
0.0
0
VERTEX
100
AcDbVertex
100
AcDb2dVertex
8
Layer01
10
382.987042
20
9.115741
30
0.0
0
VERTEX
100
AcDbVertex
100
AcDb2dVertex
8
Layer01
10
382.580048
20
9.238275
30
0.0
0
VERTEX
100
AcDbVertex
100
AcDb2dVertex
8
Layer01
10
382.173004
20
9.355687
30
0.0
0
VERTEX
100
AcDbVertex
100
AcDb2dVertex
8
Layer01
10
381.76601
20
9.472816
30
0.0
0
VERTEX
100
AcDbVertex
100
AcDb2dVertex
8
Layer01
10
381.359015
20
9.589633
30
0.0
0
VERTEX
100
AcDbVertex
100
AcDb2dVertex
8
Layer01
10
380.95202
20
9.706121
30
0.0
0
VERTEX
100
AcDbVertex
100
AcDb2dVertex
8
Layer01
10
380.545025
20
9.822291
30
0.0
0
VERTEX
100
AcDbVertex
100
AcDb2dVertex
8
Layer01
10
380.13803
20
9.938174
30
0.0
0
VERTEX
100
AcDbVertex
100
AcDb2dVertex
8
Layer01
10
379.731036
20
10.053825
30
0.0
0
VERTEX
100
AcDbVertex
100
AcDb2dVertex
8
Layer01
10
379.324041
20
10.169309
30
0.0
0
VERTEX
100
AcDbVertex
100
AcDb2dVertex
8
Layer01
10
378.917046
20
10.284704
30
0.0
0
VERTEX
100
AcDbVertex
100
AcDb2dVertex
8
Layer01
10
378.510051
20
10.400097
30
0.0
0
VERTEX
100
AcDbVertex
100
AcDb2dVertex
8
Layer01
10
378.103008
20
10.516828
30
0.0
0
VERTEX
100
AcDbVertex
100
AcDb2dVertex
8
Layer01
10
377.696013
20
10.63363
30
0.0
0
VERTEX
100
AcDbVertex
100
AcDb2dVertex
8
Layer01
10
377.289019
20
10.750513
30
0.0
0
VERTEX
100
AcDbVertex
100
AcDb2dVertex
8
Layer01
10
376.882024
20
10.867474
30
0.0
0
VERTEX
100
AcDbVertex
100
AcDb2dVertex
8
Layer01
10
376.475029
20
10.984509
30
0.0
0
VERTEX
100
AcDbVertex
100
AcDb2dVertex
8
Layer01
10
376.068034
20
11.101617
30
0.0
0
VERTEX
100
AcDbVertex
100
AcDb2dVertex
8
Layer01
10
375.66104
20
11.218793
30
0.0
0
VERTEX
100
AcDbVertex
100
AcDb2dVertex
8
Layer01
10
375.254045
20
11.336036
30
0.0
0
VERTEX
100
AcDbVertex
100
AcDb2dVertex
8
Layer01
10
374.84705
20
11.453342
30
0.0
0
VERTEX
100
AcDbVertex
100
AcDb2dVertex
8
Layer01
10
374.440055
20
11.570709
30
0.0
0
VERTEX
100
AcDbVertex
100
AcDb2dVertex
8
Layer01
10
374.033012
20
11.688186
30
0.0
0
VERTEX
100
AcDbVertex
100
AcDb2dVertex
8
Layer01
10
373.626017
20
11.805701
30
0.0
0
VERTEX
100
AcDbVertex
100
AcDb2dVertex
8
Layer01
10
373.219023
20
11.923262
30
0.0
0
VERTEX
100
AcDbVertex
100
AcDb2dVertex
8
Layer01
10
372.812028
20
12.040866
30
0.0
0
VERTEX
100
AcDbVertex
100
AcDb2dVertex
8
Layer01
10
372.405033
20
12.158507
30
0.0
0
VERTEX
100
AcDbVertex
100
AcDb2dVertex
8
Layer01
10
371.998038
20
12.27618
30
0.0
0
VERTEX
100
AcDbVertex
100
AcDb2dVertex
8
Layer01
10
371.591043
20
12.393883
30
0.0
0
VERTEX
100
AcDbVertex
100
AcDb2dVertex
8
Layer01
10
371.184049
20
12.511612
30
0.0
0
VERTEX
100
AcDbVertex
100
AcDb2dVertex
8
Layer01
10
370.777054
20
12.629365
30
0.0
0
VERTEX
100
AcDbVertex
100
AcDb2dVertex
8
Layer01
10
370.370059
20
12.747141
30
0.0
0
VERTEX
100
AcDbVertex
100
AcDb2dVertex
8
Layer01
10
369.963016
20
12.864805
30
0.0
0
VERTEX
100
AcDbVertex
100
AcDb2dVertex
8
Layer01
10
369.556021
20
12.98249
30
0.0
0
VERTEX
100
AcDbVertex
100
AcDb2dVertex
8
Layer01
10
369.149026
20
13.100225
30
0.0
0
VERTEX
100
AcDbVertex
100
AcDb2dVertex
8
Layer01
10
368.742032
20
13.218022
30
0.0
0
VERTEX
100
AcDbVertex
100
AcDb2dVertex
8
Layer01
10
368.335037
20
13.335895
30
0.0
0
VERTEX
100
AcDbVertex
100
AcDb2dVertex
8
Layer01
10
367.928042
20
13.453859
30
0.0
0
VERTEX
100
AcDbVertex
100
AcDb2dVertex
8
Layer01
10
367.521047
20
13.571927
30
0.0
0
VERTEX
100
AcDbVertex
100
AcDb2dVertex
8
Layer01
10
367.114053
20
13.690111
30
0.0
0
VERTEX
100
AcDbVertex
100
AcDb2dVertex
8
Layer01
10
366.707058
20
13.808422
30
0.0
0
VERTEX
100
AcDbVertex
100
AcDb2dVertex
8
Layer01
10
366.300063
20
13.92687
30
0.0
0
VERTEX
100
AcDbVertex
100
AcDb2dVertex
8
Layer01
10
365.892996
20
14.045709
30
0.0
0
VERTEX
100
AcDbVertex
100
AcDb2dVertex
8
Layer01
10
365.486001
20
14.16466
30
0.0
0
VERTEX
100
AcDbVertex
100
AcDb2dVertex
8
Layer01
10
365.079006
20
14.28373
30
0.0
0
VERTEX
100
AcDbVertex
100
AcDb2dVertex
8
Layer01
10
364.672011
20
14.402906
30
0.0
0
VERTEX
100
AcDbVertex
100
AcDb2dVertex
8
Layer01
10
364.265016
20
14.52217
30
0.0
0
VERTEX
100
AcDbVertex
100
AcDb2dVertex
8
Layer01
10
363.858022
20
14.641507
30
0.0
0
VERTEX
100
AcDbVertex
100
AcDb2dVertex
8
Layer01
10
363.451027
20
14.760898
30
0.0
0
VERTEX
100
AcDbVertex
100
AcDb2dVertex
8
Layer01
10
363.044032
20
14.880326
30
0.0
0
VERTEX
100
AcDbVertex
100
AcDb2dVertex
8
Layer01
10
362.637037
20
14.999774
30
0.0
0
VERTEX
100
AcDbVertex
100
AcDb2dVertex
8
Layer01
10
362.230043
20
15.119223
30
0.0
0
VERTEX
100
AcDbVertex
100
AcDb2dVertex
8
Layer01
10
361.822999
20
15.238524
30
0.0
0
VERTEX
100
AcDbVertex
100
AcDb2dVertex
8
Layer01
10
361.416005
20
15.357793
30
0.0
0
VERTEX
100
AcDbVertex
100
AcDb2dVertex
8
Layer01
10
361.00901
20
15.477041
30
0.0
0
VERTEX
100
AcDbVertex
100
AcDb2dVertex
8
Layer01
10
360.602015
20
15.596268
30
0.0
0
VERTEX
100
AcDbVertex
100
AcDb2dVertex
8
Layer01
10
360.19502
20
15.715472
30
0.0
0
VERTEX
100
AcDbVertex
100
AcDb2dVertex
8
Layer01
10
359.788026
20
15.834652
30
0.0
0
VERTEX
100
AcDbVertex
100
AcDb2dVertex
8
Layer01
10
359.381031
20
15.953811
30
0.0
0
VERTEX
100
AcDbVertex
100
AcDb2dVertex
8
Layer01
10
358.974036
20
16.072948
30
0.0
0
VERTEX
100
AcDbVertex
100
AcDb2dVertex
8
Layer01
10
358.567041
20
16.192065
30
0.0
0
VERTEX
100
AcDbVertex
100
AcDb2dVertex
8
Layer01
10
358.160047
20
16.311163
30
0.0
0
VERTEX
100
AcDbVertex
100
AcDb2dVertex
8
Layer01
10
357.753003
20
16.430295
30
0.0
0
VERTEX
100
AcDbVertex
100
AcDb2dVertex
8
Layer01
10
357.346009
20
16.549396
30
0.0
0
VERTEX
100
AcDbVertex
100
AcDb2dVertex
8
Layer01
10
356.939014
20
16.668478
30
0.0
0
VERTEX
100
AcDbVertex
100
AcDb2dVertex
8
Layer01
10
356.532019
20
16.787539
30
0.0
0
VERTEX
100
AcDbVertex
100
AcDb2dVertex
8
Layer01
10
356.125024
20
16.90658
30
0.0
0
VERTEX
100
AcDbVertex
100
AcDb2dVertex
8
Layer01
10
355.718029
20
17.025598
30
0.0
0
VERTEX
100
AcDbVertex
100
AcDb2dVertex
8
Layer01
10
355.311035
20
17.144593
30
0.0
0
VERTEX
100
AcDbVertex
100
AcDb2dVertex
8
Layer01
10
354.90404
20
17.263565
30
0.0
0
VERTEX
100
AcDbVertex
100
AcDb2dVertex
8
Layer01
10
354.497045
20
17.382512
30
0.0
0
VERTEX
100
AcDbVertex
100
AcDb2dVertex
8
Layer01
10
354.09005
20
17.501433
30
0.0
0
VERTEX
100
AcDbVertex
100
AcDb2dVertex
8
Layer01
10
353.683007
20
17.620342
30
0.0
0
VERTEX
100
AcDbVertex
100
AcDb2dVertex
8
Layer01
10
353.276012
20
17.73921
30
0.0
0
VERTEX
100
AcDbVertex
100
AcDb2dVertex
8
Layer01
10
352.869018
20
17.85805
30
0.0
0
VERTEX
100
AcDbVertex
100
AcDb2dVertex
8
Layer01
10
352.462023
20
17.976862
30
0.0
0
VERTEX
100
AcDbVertex
100
AcDb2dVertex
8
Layer01
10
352.055028
20
18.095644
30
0.0
0
VERTEX
100
AcDbVertex
100
AcDb2dVertex
8
Layer01
10
351.648033
20
18.214397
30
0.0
0
VERTEX
100
AcDbVertex
100
AcDb2dVertex
8
Layer01
10
351.241039
20
18.333119
30
0.0
0
VERTEX
100
AcDbVertex
100
AcDb2dVertex
8
Layer01
10
350.834044
20
18.451811
30
0.0
0
VERTEX
100
AcDbVertex
100
AcDb2dVertex
8
Layer01
10
350.427049
20
18.570471
30
0.0
0
VERTEX
100
AcDbVertex
100
AcDb2dVertex
8
Layer01
10
350.020054
20
18.689099
30
0.0
0
VERTEX
100
AcDbVertex
100
AcDb2dVertex
8
Layer01
10
349.613011
20
18.807708
30
0.0
0
VERTEX
100
AcDbVertex
100
AcDb2dVertex
8
Layer01
10
349.206016
20
18.92627
30
0.0
0
VERTEX
100
AcDbVertex
100
AcDb2dVertex
8
Layer01
10
348.799022
20
19.044799
30
0.0
0
VERTEX
100
AcDbVertex
100
AcDb2dVertex
8
Layer01
10
348.392027
20
19.163294
30
0.0
0
VERTEX
100
AcDbVertex
100
AcDb2dVertex
8
Layer01
10
347.985032
20
19.281756
30
0.0
0
VERTEX
100
AcDbVertex
100
AcDb2dVertex
8
Layer01
10
347.578037
20
19.400183
30
0.0
0
VERTEX
100
AcDbVertex
100
AcDb2dVertex
8
Layer01
10
347.171043
20
19.518577
30
0.0
0
VERTEX
100
AcDbVertex
100
AcDb2dVertex
8
Layer01
10
346.764048
20
19.636936
30
0.0
0
VERTEX
100
AcDbVertex
100
AcDb2dVertex
8
Layer01
10
346.357053
20
19.75526
30
0.0
0
VERTEX
100
AcDbVertex
100
AcDb2dVertex
8
Layer01
10
345.950058
20
19.873549
30
0.0
0
VERTEX
100
AcDbVertex
100
AcDb2dVertex
8
Layer01
10
345.543015
20
19.991818
30
0.0
0
VERTEX
100
AcDbVertex
100
AcDb2dVertex
8
Layer01
10
345.13602
20
20.110038
30
0.0
0
VERTEX
100
AcDbVertex
100
AcDb2dVertex
8
Layer01
10
344.729025
20
20.228223
30
0.0
0
VERTEX
100
AcDbVertex
100
AcDb2dVertex
8
Layer01
10
344.322031
20
20.346371
30
0.0
0
VERTEX
100
AcDbVertex
100
AcDb2dVertex
8
Layer01
10
343.915036
20
20.464483
30
0.0
0
VERTEX
100
AcDbVertex
100
AcDb2dVertex
8
Layer01
10
343.508041
20
20.58256
30
0.0
0
VERTEX
100
AcDbVertex
100
AcDb2dVertex
8
Layer01
10
343.101046
20
20.700599
30
0.0
0
VERTEX
100
AcDbVertex
100
AcDb2dVertex
8
Layer01
10
342.694052
20
20.818603
30
0.0
0
VERTEX
100
AcDbVertex
100
AcDb2dVertex
8
Layer01
10
342.287057
20
20.936569
30
0.0
0
VERTEX
100
AcDbVertex
100
AcDb2dVertex
8
Layer01
10
341.880062
20
21.054499
30
0.0
0
VERTEX
100
AcDbVertex
100
AcDb2dVertex
8
Layer01
10
341.472995
20
21.172412
30
0.0
0
VERTEX
100
AcDbVertex
100
AcDb2dVertex
8
Layer01
10
341.066
20
21.290267
30
0.0
0
VERTEX
100
AcDbVertex
100
AcDb2dVertex
8
Layer01
10
340.659005
20
21.408085
30
0.0
0
VERTEX
100
AcDbVertex
100
AcDb2dVertex
8
Layer01
10
340.25201
20
21.525867
30
0.0
0
VERTEX
100
AcDbVertex
100
AcDb2dVertex
8
Layer01
10
339.845016
20
21.643612
30
0.0
0
VERTEX
100
AcDbVertex
100
AcDb2dVertex
8
Layer01
10
339.438021
20
21.76132
30
0.0
0
VERTEX
100
AcDbVertex
100
AcDb2dVertex
8
Layer01
10
339.031026
20
21.878992
30
0.0
0
VERTEX
100
AcDbVertex
100
AcDb2dVertex
8
Layer01
10
338.624031
20
21.996628
30
0.0
0
VERTEX
100
AcDbVertex
100
AcDb2dVertex
8
Layer01
10
338.217036
20
22.114229
30
0.0
0
VERTEX
100
AcDbVertex
100
AcDb2dVertex
8
Layer01
10
337.810042
20
22.231793
30
0.0
0
VERTEX
100
AcDbVertex
100
AcDb2dVertex
8
Layer01
10
337.402998
20
22.349337
30
0.0
0
VERTEX
100
AcDbVertex
100
AcDb2dVertex
8
Layer01
10
336.996004
20
22.466831
30
0.0
0
VERTEX
100
AcDbVertex
100
AcDb2dVertex
8
Layer01
10
336.589009
20
22.584291
30
0.0
0
VERTEX
100
AcDbVertex
100
AcDb2dVertex
8
Layer01
10
336.182014
20
22.701715
30
0.0
0
VERTEX
100
AcDbVertex
100
AcDb2dVertex
8
Layer01
10
335.775019
20
22.819104
30
0.0
0
VERTEX
100
AcDbVertex
100
AcDb2dVertex
8
Layer01
10
335.368025
20
22.936459
30
0.0
0
VERTEX
100
AcDbVertex
100
AcDb2dVertex
8
Layer01
10
334.96103
20
23.05378
30
0.0
0
VERTEX
100
AcDbVertex
100
AcDb2dVertex
8
Layer01
10
334.554035
20
23.171067
30
0.0
0
VERTEX
100
AcDbVertex
100
AcDb2dVertex
8
Layer01
10
334.14704
20
23.28832
30
0.0
0
VERTEX
100
AcDbVertex
100
AcDb2dVertex
8
Layer01
10
333.740046
20
23.405539
30
0.0
0
VERTEX
100
AcDbVertex
100
AcDb2dVertex
8
Layer01
10
333.333002
20
23.522495
30
0.0
0
VERTEX
100
AcDbVertex
100
AcDb2dVertex
8
Layer01
10
332.926008
20
23.639422
30
0.0
0
VERTEX
100
AcDbVertex
100
AcDb2dVertex
8
Layer01
10
332.519013
20
23.756353
30
0.0
0
VERTEX
100
AcDbVertex
100
AcDb2dVertex
8
Layer01
10
332.112018
20
23.873304
30
0.0
0
VERTEX
100
AcDbVertex
100
AcDb2dVertex
8
Layer01
10
331.705023
20
23.99029
30
0.0
0
VERTEX
100
AcDbVertex
100
AcDb2dVertex
8
Layer01
10
331.298029
20
24.107321
30
0.0
0
VERTEX
100
AcDbVertex
100
AcDb2dVertex
8
Layer01
10
330.891034
20
24.224406
30
0.0
0
VERTEX
100
AcDbVertex
100
AcDb2dVertex
8
Layer01
10
330.484039
20
24.341548
30
0.0
0
VERTEX
100
AcDbVertex
100
AcDb2dVertex
8
Layer01
10
330.077044
20
24.458745
30
0.0
0
VERTEX
100
AcDbVertex
100
AcDb2dVertex
8
Layer01
10
329.670049
20
24.575989
30
0.0
0
VERTEX
100
AcDbVertex
100
AcDb2dVertex
8
Layer01
10
329.263006
20
24.694254
30
0.0
0
VERTEX
100
AcDbVertex
100
AcDb2dVertex
8
Layer01
10
328.856011
20
24.812442
30
0.0
0
VERTEX
100
AcDbVertex
100
AcDb2dVertex
8
Layer01
10
328.449017
20
24.930467
30
0.0
0
VERTEX
100
AcDbVertex
100
AcDb2dVertex
8
Layer01
10
328.042022
20
25.048226
30
0.0
0
VERTEX
100
AcDbVertex
100
AcDb2dVertex
8
Layer01
10
327.635027
20
25.165615
30
0.0
0
VERTEX
100
AcDbVertex
100
AcDb2dVertex
8
Layer01
10
327.228032
20
25.282531
30
0.0
0
VERTEX
100
AcDbVertex
100
AcDb2dVertex
8
Layer01
10
326.821038
20
25.398875
30
0.0
0
VERTEX
100
AcDbVertex
100
AcDb2dVertex
8
Layer01
10
326.414043
20
25.514555
30
0.0
0
VERTEX
100
AcDbVertex
100
AcDb2dVertex
8
Layer01
10
326.007048
20
25.629484
30
0.0
0
VERTEX
100
AcDbVertex
100
AcDb2dVertex
8
Layer01
10
325.600053
20
25.74359
30
0.0
0
VERTEX
100
AcDbVertex
100
AcDb2dVertex
8
Layer01
10
325.19301
20
25.855362
30
0.0
0
VERTEX
100
AcDbVertex
100
AcDb2dVertex
8
Layer01
10
324.786015
20
25.966297
30
0.0
0
VERTEX
100
AcDbVertex
100
AcDb2dVertex
8
Layer01
10
324.379021
20
26.076483
30
0.0
0
VERTEX
100
AcDbVertex
100
AcDb2dVertex
8
Layer01
10
323.972026
20
26.186007
30
0.0
0
VERTEX
100
AcDbVertex
100
AcDb2dVertex
8
Layer01
10
323.565031
20
26.294961
30
0.0
0
VERTEX
100
AcDbVertex
100
AcDb2dVertex
8
Layer01
10
323.158036
20
26.403445
30
0.0
0
VERTEX
100
AcDbVertex
100
AcDb2dVertex
8
Layer01
10
322.751042
20
26.511563
30
0.0
0
VERTEX
100
AcDbVertex
100
AcDb2dVertex
8
Layer01
10
322.344047
20
26.619419
30
0.0
0
VERTEX
100
AcDbVertex
100
AcDb2dVertex
8
Layer01
10
321.937052
20
26.727116
30
0.0
0
VERTEX
100
AcDbVertex
100
AcDb2dVertex
8
Layer01
10
321.530057
20
26.834757
30
0.0
0
VERTEX
100
AcDbVertex
100
AcDb2dVertex
8
Layer01
10
321.123014
20
26.943423
30
0.0
0
VERTEX
100
AcDbVertex
100
AcDb2dVertex
8
Layer01
10
320.716019
20
27.05213
30
0.0
0
VERTEX
100
AcDbVertex
100
AcDb2dVertex
8
Layer01
10
320.309024
20
27.160898
30
0.0
0
VERTEX
100
AcDbVertex
100
AcDb2dVertex
8
Layer01
10
319.90203
20
27.269731
30
0.0
0
VERTEX
100
AcDbVertex
100
AcDb2dVertex
8
Layer01
10
319.495035
20
27.378625
30
0.0
0
VERTEX
100
AcDbVertex
100
AcDb2dVertex
8
Layer01
10
319.08804
20
27.487573
30
0.0
0
VERTEX
100
AcDbVertex
100
AcDb2dVertex
8
Layer01
10
318.681045
20
27.596564
30
0.0
0
VERTEX
100
AcDbVertex
100
AcDb2dVertex
8
Layer01
10
318.274051
20
27.705583
30
0.0
0
VERTEX
100
AcDbVertex
100
AcDb2dVertex
8
Layer01
10
317.867056
20
27.814616
30
0.0
0
VERTEX
100
AcDbVertex
100
AcDb2dVertex
8
Layer01
10
317.460061
20
27.923643
30
0.0
0
VERTEX
100
AcDbVertex
100
AcDb2dVertex
8
Layer01
10
317.052994
20
28.032423
30
0.0
0
VERTEX
100
AcDbVertex
100
AcDb2dVertex
8
Layer01
10
316.645999
20
28.141161
30
0.0
0
VERTEX
100
AcDbVertex
100
AcDb2dVertex
8
Layer01
10
316.239004
20
28.249874
30
0.0
0
VERTEX
100
AcDbVertex
100
AcDb2dVertex
8
Layer01
10
315.832009
20
28.358563
30
0.0
0
VERTEX
100
AcDbVertex
100
AcDb2dVertex
8
Layer01
10
315.425015
20
28.467227
30
0.0
0
VERTEX
100
AcDbVertex
100
AcDb2dVertex
8
Layer01
10
315.01802
20
28.575867
30
0.0
0
VERTEX
100
AcDbVertex
100
AcDb2dVertex
8
Layer01
10
314.611025
20
28.684482
30
0.0
0
VERTEX
100
AcDbVertex
100
AcDb2dVertex
8
Layer01
10
314.20403
20
28.793072
30
0.0
0
VERTEX
100
AcDbVertex
100
AcDb2dVertex
8
Layer01
10
313.797036
20
28.901637
30
0.0
0
VERTEX
100
AcDbVertex
100
AcDb2dVertex
8
Layer01
10
313.390041
20
29.010176
30
0.0
0
VERTEX
100
AcDbVertex
100
AcDb2dVertex
8
Layer01
10
312.982997
20
29.1187
30
0.0
0
VERTEX
100
AcDbVertex
100
AcDb2dVertex
8
Layer01
10
312.576003
20
29.227186
30
0.0
0
VERTEX
100
AcDbVertex
100
AcDb2dVertex
8
Layer01
10
312.169008
20
29.335646
30
0.0
0
VERTEX
100
AcDbVertex
100
AcDb2dVertex
8
Layer01
10
311.762013
20
29.444079
30
0.0
0
VERTEX
100
AcDbVertex
100
AcDb2dVertex
8
Layer01
10
311.355018
20
29.552487
30
0.0
0
VERTEX
100
AcDbVertex
100
AcDb2dVertex
8
Layer01
10
310.948024
20
29.660869
30
0.0
0
VERTEX
100
AcDbVertex
100
AcDb2dVertex
8
Layer01
10
310.541029
20
29.769225
30
0.0
0
VERTEX
100
AcDbVertex
100
AcDb2dVertex
8
Layer01
10
310.134034
20
29.877556
30
0.0
0
VERTEX
100
AcDbVertex
100
AcDb2dVertex
8
Layer01
10
309.727039
20
29.98586
30
0.0
0
VERTEX
100
AcDbVertex
100
AcDb2dVertex
8
Layer01
10
309.320045
20
30.094138
30
0.0
0
VERTEX
100
AcDbVertex
100
AcDb2dVertex
8
Layer01
10
308.913001
20
30.202405
30
0.0
0
VERTEX
100
AcDbVertex
100
AcDb2dVertex
8
Layer01
10
308.506007
20
30.310632
30
0.0
0
VERTEX
100
AcDbVertex
100
AcDb2dVertex
8
Layer01
10
308.099012
20
30.418833
30
0.0
0
VERTEX
100
AcDbVertex
100
AcDb2dVertex
8
Layer01
10
307.692017
20
30.527008
30
0.0
0
VERTEX
100
AcDbVertex
100
AcDb2dVertex
8
Layer01
10
307.285022
20
30.635157
30
0.0
0
VERTEX
100
AcDbVertex
100
AcDb2dVertex
8
Layer01
10
306.878028
20
30.743278
30
0.0
0
VERTEX
100
AcDbVertex
100
AcDb2dVertex
8
Layer01
10
306.471033
20
30.851373
30
0.0
0
VERTEX
100
AcDbVertex
100
AcDb2dVertex
8
Layer01
10
306.064038
20
30.959441
30
0.0
0
VERTEX
100
AcDbVertex
100
AcDb2dVertex
8
Layer01
10
305.657043
20
31.067482
30
0.0
0
VERTEX
100
AcDbVertex
100
AcDb2dVertex
8
Layer01
10
305.250049
20
31.175495
30
0.0
0
VERTEX
100
AcDbVertex
100
AcDb2dVertex
8
Layer01
10
304.843005
20
31.283493
30
0.0
0
VERTEX
100
AcDbVertex
100
AcDb2dVertex
8
Layer01
10
304.43601
20
31.39145
30
0.0
0
VERTEX
100
AcDbVertex
100
AcDb2dVertex
8
Layer01
10
304.029016
20
31.49938
30
0.0
0
VERTEX
100
AcDbVertex
100
AcDb2dVertex
8
Layer01
10
303.622021
20
31.607282
30
0.0
0
VERTEX
100
AcDbVertex
100
AcDb2dVertex
8
Layer01
10
303.215026
20
31.715157
30
0.0
0
VERTEX
100
AcDbVertex
100
AcDb2dVertex
8
Layer01
10
302.808031
20
31.823005
30
0.0
0
VERTEX
100
AcDbVertex
100
AcDb2dVertex
8
Layer01
10
302.401037
20
31.930826
30
0.0
0
VERTEX
100
AcDbVertex
100
AcDb2dVertex
8
Layer01
10
301.994042
20
32.03862
30
0.0
0
VERTEX
100
AcDbVertex
100
AcDb2dVertex
8
Layer01
10
301.587047
20
32.146386
30
0.0
0
VERTEX
100
AcDbVertex
100
AcDb2dVertex
8
Layer01
10
301.180052
20
32.254126
30
0.0
0
VERTEX
100
AcDbVertex
100
AcDb2dVertex
8
Layer01
10
300.773009
20
32.361853
30
0.0
0
VERTEX
100
AcDbVertex
100
AcDb2dVertex
8
Layer01
10
300.366014
20
32.46954
30
0.0
0
VERTEX
100
AcDbVertex
100
AcDb2dVertex
8
Layer01
10
299.95902
20
32.5772
30
0.0
0
VERTEX
100
AcDbVertex
100
AcDb2dVertex
8
Layer01
10
299.552025
20
32.684831
30
0.0
0
VERTEX
100
AcDbVertex
100
AcDb2dVertex
8
Layer01
10
299.14503
20
32.792435
30
0.0
0
VERTEX
100
AcDbVertex
100
AcDb2dVertex
8
Layer01
10
298.738035
20
32.900011
30
0.0
0
VERTEX
100
AcDbVertex
100
AcDb2dVertex
8
Layer01
10
298.331041
20
33.007559
30
0.0
0
VERTEX
100
AcDbVertex
100
AcDb2dVertex
8
Layer01
10
297.924046
20
33.115078
30
0.0
0
VERTEX
100
AcDbVertex
100
AcDb2dVertex
8
Layer01
10
297.517051
20
33.222568
30
0.0
0
VERTEX
100
AcDbVertex
100
AcDb2dVertex
8
Layer01
10
297.110056
20
33.330029
30
0.0
0
VERTEX
100
AcDbVertex
100
AcDb2dVertex
8
Layer01
10
296.703013
20
33.437472
30
0.0
0
VERTEX
100
AcDbVertex
100
AcDb2dVertex
8
Layer01
10
296.296018
20
33.544873
30
0.0
0
VERTEX
100
AcDbVertex
100
AcDb2dVertex
8
Layer01
10
295.889023
20
33.652244
30
0.0
0
VERTEX
100
AcDbVertex
100
AcDb2dVertex
8
Layer01
10
295.482029
20
33.759587
30
0.0
0
VERTEX
100
AcDbVertex
100
AcDb2dVertex
8
Layer01
10
295.075034
20
33.866902
30
0.0
0
VERTEX
100
AcDbVertex
100
AcDb2dVertex
8
Layer01
10
294.668039
20
33.974187
30
0.0
0
VERTEX
100
AcDbVertex
100
AcDb2dVertex
8
Layer01
10
294.261044
20
34.081444
30
0.0
0
VERTEX
100
AcDbVertex
100
AcDb2dVertex
8
Layer01
10
293.85405
20
34.188672
30
0.0
0
VERTEX
100
AcDbVertex
100
AcDb2dVertex
8
Layer01
10
293.447055
20
34.295872
30
0.0
0
VERTEX
100
AcDbVertex
100
AcDb2dVertex
8
Layer01
10
293.04006
20
34.403043
30
0.0
0
VERTEX
100
AcDbVertex
100
AcDb2dVertex
8
Layer01
10
292.633017
20
34.50979
30
0.0
0
VERTEX
100
AcDbVertex
100
AcDb2dVertex
8
Layer01
10
292.226022
20
34.616526
30
0.0
0
VERTEX
100
AcDbVertex
100
AcDb2dVertex
8
Layer01
10
291.819027
20
34.723295
30
0.0
0
VERTEX
100
AcDbVertex
100
AcDb2dVertex
8
Layer01
10
291.412033
20
34.830122
30
0.0
0
VERTEX
100
AcDbVertex
100
AcDb2dVertex
8
Layer01
10
291.005038
20
34.937032
30
0.0
0
VERTEX
100
AcDbVertex
100
AcDb2dVertex
8
Layer01
10
290.598043
20
35.044042
30
0.0
0
VERTEX
100
AcDbVertex
100
AcDb2dVertex
8
Layer01
10
290.191048
20
35.151164
30
0.0
0
VERTEX
100
AcDbVertex
100
AcDb2dVertex
8
Layer01
10
289.784054
20
35.258404
30
0.0
0
VERTEX
100
AcDbVertex
100
AcDb2dVertex
8
Layer01
10
289.377059
20
35.365757
30
0.0
0
VERTEX
100
AcDbVertex
100
AcDb2dVertex
8
Layer01
10
288.970064
20
35.473208
30
0.0
0
VERTEX
100
AcDbVertex
100
AcDb2dVertex
8
Layer01
10
288.562997
20
35.582394
30
0.0
0
VERTEX
100
AcDbVertex
100
AcDb2dVertex
8
Layer01
10
288.156002
20
35.691472
30
0.0
0
VERTEX
100
AcDbVertex
100
AcDb2dVertex
8
Layer01
10
287.749007
20
35.800293
30
0.0
0
VERTEX
100
AcDbVertex
100
AcDb2dVertex
8
Layer01
10
287.342012
20
35.90868
30
0.0
0
VERTEX
100
AcDbVertex
100
AcDb2dVertex
8
Layer01
10
286.935017
20
36.016457
30
0.0
0
VERTEX
100
AcDbVertex
100
AcDb2dVertex
8
Layer01
10
286.528023
20
36.12345
30
0.0
0
VERTEX
100
AcDbVertex
100
AcDb2dVertex
8
Layer01
10
286.121028
20
36.229493
30
0.0
0
VERTEX
100
AcDbVertex
100
AcDb2dVertex
8
Layer01
10
285.714033
20
36.334426
30
0.0
0
VERTEX
100
AcDbVertex
100
AcDb2dVertex
8
Layer01
10
285.307038
20
36.438107
30
0.0
0
VERTEX
100
AcDbVertex
100
AcDb2dVertex
8
Layer01
10
284.900044
20
36.540408
30
0.0
0
VERTEX
100
AcDbVertex
100
AcDb2dVertex
8
Layer01
10
284.493
20
36.638772
30
0.0
0
VERTEX
100
AcDbVertex
100
AcDb2dVertex
8
Layer01
10
284.086006
20
36.735745
30
0.0
0
VERTEX
100
AcDbVertex
100
AcDb2dVertex
8
Layer01
10
283.679011
20
36.831465
30
0.0
0
VERTEX
100
AcDbVertex
100
AcDb2dVertex
8
Layer01
10
283.272016
20
36.926076
30
0.0
0
VERTEX
100
AcDbVertex
100
AcDb2dVertex
8
Layer01
10
282.865021
20
37.019735
30
0.0
0
VERTEX
100
AcDbVertex
100
AcDb2dVertex
8
Layer01
10
282.458027
20
37.112611
30
0.0
0
VERTEX
100
AcDbVertex
100
AcDb2dVertex
8
Layer01
10
282.051032
20
37.204876
30
0.0
0
VERTEX
100
AcDbVertex
100
AcDb2dVertex
8
Layer01
10
281.644037
20
37.296708
30
0.0
0
VERTEX
100
AcDbVertex
100
AcDb2dVertex
8
Layer01
10
281.237042
20
37.388281
30
0.0
0
VERTEX
100
AcDbVertex
100
AcDb2dVertex
8
Layer01
10
280.830048
20
37.479765
30
0.0
0
VERTEX
100
AcDbVertex
100
AcDb2dVertex
8
Layer01
10
280.423004
20
37.572976
30
0.0
0
VERTEX
100
AcDbVertex
100
AcDb2dVertex
8
Layer01
10
280.01601
20
37.666274
30
0.0
0
VERTEX
100
AcDbVertex
100
AcDb2dVertex
8
Layer01
10
279.609015
20
37.759684
30
0.0
0
VERTEX
100
AcDbVertex
100
AcDb2dVertex
8
Layer01
10
279.20202
20
37.853209
30
0.0
0
VERTEX
100
AcDbVertex
100
AcDb2dVertex
8
Layer01
10
278.795025
20
37.946846
30
0.0
0
VERTEX
100
AcDbVertex
100
AcDb2dVertex
8
Layer01
10
278.38803
20
38.04058
30
0.0
0
VERTEX
100
AcDbVertex
100
AcDb2dVertex
8
Layer01
10
277.981036
20
38.134395
30
0.0
0
VERTEX
100
AcDbVertex
100
AcDb2dVertex
8
Layer01
10
277.574041
20
38.228266
30
0.0
0
VERTEX
100
AcDbVertex
100
AcDb2dVertex
8
Layer01
10
277.167046
20
38.322167
30
0.0
0
VERTEX
100
AcDbVertex
100
AcDb2dVertex
8
Layer01
10
276.760051
20
38.416067
30
0.0
0
VERTEX
100
AcDbVertex
100
AcDb2dVertex
8
Layer01
10
276.353008
20
38.509535
30
0.0
0
VERTEX
100
AcDbVertex
100
AcDb2dVertex
8
Layer01
10
275.946013
20
38.60296
30
0.0
0
VERTEX
100
AcDbVertex
100
AcDb2dVertex
8
Layer01
10
275.539019
20
38.696355
30
0.0
0
VERTEX
100
AcDbVertex
100
AcDb2dVertex
8
Layer01
10
275.132024
20
38.789717
30
0.0
0
VERTEX
100
AcDbVertex
100
AcDb2dVertex
8
Layer01
10
274.725029
20
38.883049
30
0.0
0
VERTEX
100
AcDbVertex
100
AcDb2dVertex
8
Layer01
10
274.318034
20
38.976349
30
0.0
0
VERTEX
100
AcDbVertex
100
AcDb2dVertex
8
Layer01
10
273.91104
20
39.069617
30
0.0
0
VERTEX
100
AcDbVertex
100
AcDb2dVertex
8
Layer01
10
273.504045
20
39.162855
30
0.0
0
VERTEX
100
AcDbVertex
100
AcDb2dVertex
8
Layer01
10
273.09705
20
39.256061
30
0.0
0
VERTEX
100
AcDbVertex
100
AcDb2dVertex
8
Layer01
10
272.690055
20
39.349236
30
0.0
0
VERTEX
100
AcDbVertex
100
AcDb2dVertex
8
Layer01
10
272.283012
20
39.442391
30
0.0
0
VERTEX
100
AcDbVertex
100
AcDb2dVertex
8
Layer01
10
271.876017
20
39.535504
30
0.0
0
VERTEX
100
AcDbVertex
100
AcDb2dVertex
8
Layer01
10
271.469023
20
39.628586
30
0.0
0
VERTEX
100
AcDbVertex
100
AcDb2dVertex
8
Layer01
10
271.062028
20
39.721636
30
0.0
0
VERTEX
100
AcDbVertex
100
AcDb2dVertex
8
Layer01
10
270.655033
20
39.814655
30
0.0
0
VERTEX
100
AcDbVertex
100
AcDb2dVertex
8
Layer01
10
270.248038
20
39.907641
30
0.0
0
VERTEX
100
AcDbVertex
100
AcDb2dVertex
8
Layer01
10
269.841043
20
40.000597
30
0.0
0
VERTEX
100
AcDbVertex
100
AcDb2dVertex
8
Layer01
10
269.434049
20
40.09352
30
0.0
0
VERTEX
100
AcDbVertex
100
AcDb2dVertex
8
Layer01
10
269.027054
20
40.186411
30
0.0
0
VERTEX
100
AcDbVertex
100
AcDb2dVertex
8
Layer01
10
268.620059
20
40.279271
30
0.0
0
VERTEX
100
AcDbVertex
100
AcDb2dVertex
8
Layer01
10
268.213016
20
40.372109
30
0.0
0
VERTEX
100
AcDbVertex
100
AcDb2dVertex
8
Layer01
10
267.806021
20
40.464903
30
0.0
0
VERTEX
100
AcDbVertex
100
AcDb2dVertex
8
Layer01
10
267.399026
20
40.557666
30
0.0
0
VERTEX
100
AcDbVertex
100
AcDb2dVertex
8
Layer01
10
266.992032
20
40.650396
30
0.0
0
VERTEX
100
AcDbVertex
100
AcDb2dVertex
8
Layer01
10
266.585037
20
40.743093
30
0.0
0
VERTEX
100
AcDbVertex
100
AcDb2dVertex
8
Layer01
10
266.178042
20
40.835758
30
0.0
0
VERTEX
100
AcDbVertex
100
AcDb2dVertex
8
Layer01
10
265.771047
20
40.92839
30
0.0
0
VERTEX
100
AcDbVertex
100
AcDb2dVertex
8
Layer01
10
265.364053
20
41.02099
30
0.0
0
VERTEX
100
AcDbVertex
100
AcDb2dVertex
8
Layer01
10
264.957058
20
41.113557
30
0.0
0
VERTEX
100
AcDbVertex
100
AcDb2dVertex
8
Layer01
10
264.550063
20
41.20609
30
0.0
0
VERTEX
100
AcDbVertex
100
AcDb2dVertex
8
Layer01
10
264.142996
20
41.298607
30
0.0
0
VERTEX
100
AcDbVertex
100
AcDb2dVertex
8
Layer01
10
263.736001
20
41.391074
30
0.0
0
VERTEX
100
AcDbVertex
100
AcDb2dVertex
8
Layer01
10
263.329006
20
41.483509
30
0.0
0
VERTEX
100
AcDbVertex
100
AcDb2dVertex
8
Layer01
10
262.922011
20
41.57591
30
0.0
0
VERTEX
100
AcDbVertex
100
AcDb2dVertex
8
Layer01
10
262.515016
20
41.668278
30
0.0
0
VERTEX
100
AcDbVertex
100
AcDb2dVertex
8
Layer01
10
262.108022
20
41.760612
30
0.0
0
VERTEX
100
AcDbVertex
100
AcDb2dVertex
8
Layer01
10
261.701027
20
41.852914
30
0.0
0
VERTEX
100
AcDbVertex
100
AcDb2dVertex
8
Layer01
10
261.294032
20
41.945182
30
0.0
0
VERTEX
100
AcDbVertex
100
AcDb2dVertex
8
Layer01
10
260.887037
20
42.037417
30
0.0
0
VERTEX
100
AcDbVertex
100
AcDb2dVertex
8
Layer01
10
260.480043
20
42.129619
30
0.0
0
VERTEX
100
AcDbVertex
100
AcDb2dVertex
8
Layer01
10
260.072999
20
42.221798
30
0.0
0
VERTEX
100
AcDbVertex
100
AcDb2dVertex
8
Layer01
10
259.666005
20
42.313932
30
0.0
0
VERTEX
100
AcDbVertex
100
AcDb2dVertex
8
Layer01
10
259.25901
20
42.406034
30
0.0
0
VERTEX
100
AcDbVertex
100
AcDb2dVertex
8
Layer01
10
258.852015
20
42.498102
30
0.0
0
VERTEX
100
AcDbVertex
100
AcDb2dVertex
8
Layer01
10
258.44502
20
42.590136
30
0.0
0
VERTEX
100
AcDbVertex
100
AcDb2dVertex
8
Layer01
10
258.038026
20
42.682137
30
0.0
0
VERTEX
100
AcDbVertex
100
AcDb2dVertex
8
Layer01
10
257.631031
20
42.774104
30
0.0
0
VERTEX
100
AcDbVertex
100
AcDb2dVertex
8
Layer01
10
257.224036
20
42.866038
30
0.0
0
VERTEX
100
AcDbVertex
100
AcDb2dVertex
8
Layer01
10
256.817041
20
42.957938
30
0.0
0
VERTEX
100
AcDbVertex
100
AcDb2dVertex
8
Layer01
10
256.410047
20
43.049804
30
0.0
0
VERTEX
100
AcDbVertex
100
AcDb2dVertex
8
Layer01
10
256.003003
20
43.141648
30
0.0
0
VERTEX
100
AcDbVertex
100
AcDb2dVertex
8
Layer01
10
255.596009
20
43.233447
30
0.0
0
VERTEX
100
AcDbVertex
100
AcDb2dVertex
8
Layer01
10
255.189014
20
43.325213
30
0.0
0
VERTEX
100
AcDbVertex
100
AcDb2dVertex
8
Layer01
10
254.782019
20
43.416944
30
0.0
0
VERTEX
100
AcDbVertex
100
AcDb2dVertex
8
Layer01
10
254.375024
20
43.508641
30
0.0
0
VERTEX
100
AcDbVertex
100
AcDb2dVertex
8
Layer01
10
253.968029
20
43.600304
30
0.0
0
VERTEX
100
AcDbVertex
100
AcDb2dVertex
8
Layer01
10
253.561035
20
43.691932
30
0.0
0
VERTEX
100
AcDbVertex
100
AcDb2dVertex
8
Layer01
10
253.15404
20
43.783527
30
0.0
0
VERTEX
100
AcDbVertex
100
AcDb2dVertex
8
Layer01
10
252.747045
20
43.875086
30
0.0
0
VERTEX
100
AcDbVertex
100
AcDb2dVertex
8
Layer01
10
252.34005
20
43.966611
30
0.0
0
VERTEX
100
AcDbVertex
100
AcDb2dVertex
8
Layer01
10
251.933007
20
44.057613
30
0.0
0
VERTEX
100
AcDbVertex
100
AcDb2dVertex
8
Layer01
10
251.526012
20
44.148607
30
0.0
0
VERTEX
100
AcDbVertex
100
AcDb2dVertex
8
Layer01
10
251.119018
20
44.23964
30
0.0
0
VERTEX
100
AcDbVertex
100
AcDb2dVertex
8
Layer01
10
250.712023
20
44.330744
30
0.0
0
VERTEX
100
AcDbVertex
100
AcDb2dVertex
8
Layer01
10
250.305028
20
44.421948
30
0.0
0
VERTEX
100
AcDbVertex
100
AcDb2dVertex
8
Layer01
10
249.898033
20
44.513275
30
0.0
0
VERTEX
100
AcDbVertex
100
AcDb2dVertex
8
Layer01
10
249.491039
20
44.60474
30
0.0
0
VERTEX
100
AcDbVertex
100
AcDb2dVertex
8
Layer01
10
249.084044
20
44.696347
30
0.0
0
VERTEX
100
AcDbVertex
100
AcDb2dVertex
8
Layer01
10
248.677049
20
44.788093
30
0.0
0
VERTEX
100
AcDbVertex
100
AcDb2dVertex
8
Layer01
10
248.270054
20
44.879959
30
0.0
0
VERTEX
100
AcDbVertex
100
AcDb2dVertex
8
Layer01
10
247.863011
20
44.973922
30
0.0
0
VERTEX
100
AcDbVertex
100
AcDb2dVertex
8
Layer01
10
247.456016
20
45.067769
30
0.0
0
VERTEX
100
AcDbVertex
100
AcDb2dVertex
8
Layer01
10
247.049022
20
45.161304
30
0.0
0
VERTEX
100
AcDbVertex
100
AcDb2dVertex
8
Layer01
10
246.642027
20
45.254314
30
0.0
0
VERTEX
100
AcDbVertex
100
AcDb2dVertex
8
Layer01
10
246.235032
20
45.346586
30
0.0
0
VERTEX
100
AcDbVertex
100
AcDb2dVertex
8
Layer01
10
245.828037
20
45.437909
30
0.0
0
VERTEX
100
AcDbVertex
100
AcDb2dVertex
8
Layer01
10
245.421043
20
45.528079
30
0.0
0
VERTEX
100
AcDbVertex
100
AcDb2dVertex
8
Layer01
10
245.014048
20
45.616906
30
0.0
0
VERTEX
100
AcDbVertex
100
AcDb2dVertex
8
Layer01
10
244.607053
20
45.704213
30
0.0
0
VERTEX
100
AcDbVertex
100
AcDb2dVertex
8
Layer01
10
244.200058
20
45.789848
30
0.0
0
VERTEX
100
AcDbVertex
100
AcDb2dVertex
8
Layer01
10
243.793015
20
45.870702
30
0.0
0
VERTEX
100
AcDbVertex
100
AcDb2dVertex
8
Layer01
10
243.38602
20
45.949873
30
0.0
0
VERTEX
100
AcDbVertex
100
AcDb2dVertex
8
Layer01
10
242.979025
20
46.027526
30
0.0
0
VERTEX
100
AcDbVertex
100
AcDb2dVertex
8
Layer01
10
242.572031
20
46.103834
30
0.0
0
VERTEX
100
AcDbVertex
100
AcDb2dVertex
8
Layer01
10
242.165036
20
46.178989
30
0.0
0
VERTEX
100
AcDbVertex
100
AcDb2dVertex
8
Layer01
10
241.758041
20
46.253194
30
0.0
0
VERTEX
100
AcDbVertex
100
AcDb2dVertex
8
Layer01
10
241.351046
20
46.32666
30
0.0
0
VERTEX
100
AcDbVertex
100
AcDb2dVertex
8
Layer01
10
240.944052
20
46.399602
30
0.0
0
VERTEX
100
AcDbVertex
100
AcDb2dVertex
8
Layer01
10
240.537057
20
46.472231
30
0.0
0
VERTEX
100
AcDbVertex
100
AcDb2dVertex
8
Layer01
10
240.130062
20
46.544753
30
0.0
0
VERTEX
100
AcDbVertex
100
AcDb2dVertex
8
Layer01
10
239.722995
20
46.619373
30
0.0
0
VERTEX
100
AcDbVertex
100
AcDb2dVertex
8
Layer01
10
239.316
20
46.6941
30
0.0
0
VERTEX
100
AcDbVertex
100
AcDb2dVertex
8
Layer01
10
238.909005
20
46.768964
30
0.0
0
VERTEX
100
AcDbVertex
100
AcDb2dVertex
8
Layer01
10
238.50201
20
46.843971
30
0.0
0
VERTEX
100
AcDbVertex
100
AcDb2dVertex
8
Layer01
10
238.095016
20
46.919113
30
0.0
0
VERTEX
100
AcDbVertex
100
AcDb2dVertex
8
Layer01
10
237.688021
20
46.994377
30
0.0
0
VERTEX
100
AcDbVertex
100
AcDb2dVertex
8
Layer01
10
237.281026
20
47.06974
30
0.0
0
VERTEX
100
AcDbVertex
100
AcDb2dVertex
8
Layer01
10
236.874031
20
47.145174
30
0.0
0
VERTEX
100
AcDbVertex
100
AcDb2dVertex
8
Layer01
10
236.467036
20
47.220646
30
0.0
0
VERTEX
100
AcDbVertex
100
AcDb2dVertex
8
Layer01
10
236.060042
20
47.296119
30
0.0
0
VERTEX
100
AcDbVertex
100
AcDb2dVertex
8
Layer01
10
235.652998
20
47.371066
30
0.0
0
VERTEX
100
AcDbVertex
100
AcDb2dVertex
8
Layer01
10
235.246004
20
47.445969
30
0.0
0
VERTEX
100
AcDbVertex
100
AcDb2dVertex
8
Layer01
10
234.839009
20
47.520835
30
0.0
0
VERTEX
100
AcDbVertex
100
AcDb2dVertex
8
Layer01
10
234.432014
20
47.595666
30
0.0
0
VERTEX
100
AcDbVertex
100
AcDb2dVertex
8
Layer01
10
234.025019
20
47.670461
30
0.0
0
VERTEX
100
AcDbVertex
100
AcDb2dVertex
8
Layer01
10
233.618025
20
47.74522
30
0.0
0
VERTEX
100
AcDbVertex
100
AcDb2dVertex
8
Layer01
10
233.21103
20
47.819944
30
0.0
0
VERTEX
100
AcDbVertex
100
AcDb2dVertex
8
Layer01
10
232.804035
20
47.894631
30
0.0
0
VERTEX
100
AcDbVertex
100
AcDb2dVertex
8
Layer01
10
232.39704
20
47.969283
30
0.0
0
VERTEX
100
AcDbVertex
100
AcDb2dVertex
8
Layer01
10
231.990046
20
48.0439
30
0.0
0
VERTEX
100
AcDbVertex
100
AcDb2dVertex
8
Layer01
10
231.583002
20
48.11849
30
0.0
0
VERTEX
100
AcDbVertex
100
AcDb2dVertex
8
Layer01
10
231.176008
20
48.193036
30
0.0
0
VERTEX
100
AcDbVertex
100
AcDb2dVertex
8
Layer01
10
230.769013
20
48.267545
30
0.0
0
VERTEX
100
AcDbVertex
100
AcDb2dVertex
8
Layer01
10
230.362018
20
48.342019
30
0.0
0
VERTEX
100
AcDbVertex
100
AcDb2dVertex
8
Layer01
10
229.955023
20
48.416456
30
0.0
0
VERTEX
100
AcDbVertex
100
AcDb2dVertex
8
Layer01
10
229.548029
20
48.490858
30
0.0
0
VERTEX
100
AcDbVertex
100
AcDb2dVertex
8
Layer01
10
229.141034
20
48.565223
30
0.0
0
VERTEX
100
AcDbVertex
100
AcDb2dVertex
8
Layer01
10
228.734039
20
48.639551
30
0.0
0
VERTEX
100
AcDbVertex
100
AcDb2dVertex
8
Layer01
10
228.327044
20
48.713843
30
0.0
0
VERTEX
100
AcDbVertex
100
AcDb2dVertex
8
Layer01
10
227.920049
20
48.788098
30
0.0
0
VERTEX
100
AcDbVertex
100
AcDb2dVertex
8
Layer01
10
227.513006
20
48.862325
30
0.0
0
VERTEX
100
AcDbVertex
100
AcDb2dVertex
8
Layer01
10
227.106011
20
48.936506
30
0.0
0
VERTEX
100
AcDbVertex
100
AcDb2dVertex
8
Layer01
10
226.699017
20
49.010651
30
0.0
0
VERTEX
100
AcDbVertex
100
AcDb2dVertex
8
Layer01
10
226.292022
20
49.084758
30
0.0
0
VERTEX
100
AcDbVertex
100
AcDb2dVertex
8
Layer01
10
225.885027
20
49.158829
30
0.0
0
VERTEX
100
AcDbVertex
100
AcDb2dVertex
8
Layer01
10
225.478032
20
49.232863
30
0.0
0
VERTEX
100
AcDbVertex
100
AcDb2dVertex
8
Layer01
10
225.071038
20
49.306861
30
0.0
0
VERTEX
100
AcDbVertex
100
AcDb2dVertex
8
Layer01
10
224.664043
20
49.380822
30
0.0
0
VERTEX
100
AcDbVertex
100
AcDb2dVertex
8
Layer01
10
224.257048
20
49.454747
30
0.0
0
VERTEX
100
AcDbVertex
100
AcDb2dVertex
8
Layer01
10
223.850053
20
49.528634
30
0.0
0
VERTEX
100
AcDbVertex
100
AcDb2dVertex
8
Layer01
10
223.44301
20
49.602495
30
0.0
0
VERTEX
100
AcDbVertex
100
AcDb2dVertex
8
Layer01
10
223.036015
20
49.67631
30
0.0
0
VERTEX
100
AcDbVertex
100
AcDb2dVertex
8
Layer01
10
222.629021
20
49.750088
30
0.0
0
VERTEX
100
AcDbVertex
100
AcDb2dVertex
8
Layer01
10
222.222026
20
49.82383
30
0.0
0
VERTEX
100
AcDbVertex
100
AcDb2dVertex
8
Layer01
10
221.815031
20
49.897535
30
0.0
0
VERTEX
100
AcDbVertex
100
AcDb2dVertex
8
Layer01
10
221.408036
20
49.971203
30
0.0
0
VERTEX
100
AcDbVertex
100
AcDb2dVertex
8
Layer01
10
221.001042
20
50.044834
30
0.0
0
VERTEX
100
AcDbVertex
100
AcDb2dVertex
8
Layer01
10
220.594047
20
50.118429
30
0.0
0
VERTEX
100
AcDbVertex
100
AcDb2dVertex
8
Layer01
10
220.187052
20
50.191986
30
0.0
0
VERTEX
100
AcDbVertex
100
AcDb2dVertex
8
Layer01
10
219.780057
20
50.265507
30
0.0
0
VERTEX
100
AcDbVertex
100
AcDb2dVertex
8
Layer01
10
219.373014
20
50.339
30
0.0
0
VERTEX
100
AcDbVertex
100
AcDb2dVertex
8
Layer01
10
218.966019
20
50.412447
30
0.0
0
VERTEX
100
AcDbVertex
100
AcDb2dVertex
8
Layer01
10
218.559024
20
50.485857
30
0.0
0
VERTEX
100
AcDbVertex
100
AcDb2dVertex
8
Layer01
10
218.15203
20
50.559229
30
0.0
0
VERTEX
100
AcDbVertex
100
AcDb2dVertex
8
Layer01
10
217.745035
20
50.632565
30
0.0
0
VERTEX
100
AcDbVertex
100
AcDb2dVertex
8
Layer01
10
217.33804
20
50.705862
30
0.0
0
VERTEX
100
AcDbVertex
100
AcDb2dVertex
8
Layer01
10
216.931045
20
50.779122
30
0.0
0
VERTEX
100
AcDbVertex
100
AcDb2dVertex
8
Layer01
10
216.524051
20
50.852345
30
0.0
0
VERTEX
100
AcDbVertex
100
AcDb2dVertex
8
Layer01
10
216.117056
20
50.925529
30
0.0
0
VERTEX
100
AcDbVertex
100
AcDb2dVertex
8
Layer01
10
215.710061
20
50.998676
30
0.0
0
VERTEX
100
AcDbVertex
100
AcDb2dVertex
8
Layer01
10
215.302994
20
51.071797
30
0.0
0
VERTEX
100
AcDbVertex
100
AcDb2dVertex
8
Layer01
10
214.895999
20
51.144867
30
0.0
0
VERTEX
100
AcDbVertex
100
AcDb2dVertex
8
Layer01
10
214.489004
20
51.217899
30
0.0
0
VERTEX
100
AcDbVertex
100
AcDb2dVertex
8
Layer01
10
214.082009
20
51.290893
30
0.0
0
VERTEX
100
AcDbVertex
100
AcDb2dVertex
8
Layer01
10
213.675015
20
51.363849
30
0.0
0
VERTEX
100
AcDbVertex
100
AcDb2dVertex
8
Layer01
10
213.26802
20
51.436768
30
0.0
0
VERTEX
100
AcDbVertex
100
AcDb2dVertex
8
Layer01
10
212.861025
20
51.509649
30
0.0
0
VERTEX
100
AcDbVertex
100
AcDb2dVertex
8
Layer01
10
212.45403
20
51.582492
30
0.0
0
VERTEX
100
AcDbVertex
100
AcDb2dVertex
8
Layer01
10
212.047036
20
51.655297
30
0.0
0
VERTEX
100
AcDbVertex
100
AcDb2dVertex
8
Layer01
10
211.640041
20
51.728065
30
0.0
0
VERTEX
100
AcDbVertex
100
AcDb2dVertex
8
Layer01
10
211.232997
20
51.800229
30
0.0
0
VERTEX
100
AcDbVertex
100
AcDb2dVertex
8
Layer01
10
210.826003
20
51.87239
30
0.0
0
VERTEX
100
AcDbVertex
100
AcDb2dVertex
8
Layer01
10
210.419008
20
51.944598
30
0.0
0
VERTEX
100
AcDbVertex
100
AcDb2dVertex
8
Layer01
10
210.012013
20
52.016891
30
0.0
0
VERTEX
100
AcDbVertex
100
AcDb2dVertex
8
Layer01
10
209.605018
20
52.089301
30
0.0
0
VERTEX
100
AcDbVertex
100
AcDb2dVertex
8
Layer01
10
209.198024
20
52.161854
30
0.0
0
VERTEX
100
AcDbVertex
100
AcDb2dVertex
8
Layer01
10
208.791029
20
52.234566
30
0.0
0
VERTEX
100
AcDbVertex
100
AcDb2dVertex
8
Layer01
10
208.384034
20
52.307445
30
0.0
0
VERTEX
100
AcDbVertex
100
AcDb2dVertex
8
Layer01
10
207.977039
20
52.380484
30
0.0
0
VERTEX
100
AcDbVertex
100
AcDb2dVertex
8
Layer01
10
207.570045
20
52.453664
30
0.0
0
VERTEX
100
AcDbVertex
100
AcDb2dVertex
8
Layer01
10
207.163001
20
52.529258
30
0.0
0
VERTEX
100
AcDbVertex
100
AcDb2dVertex
8
Layer01
10
206.756007
20
52.604723
30
0.0
0
VERTEX
100
AcDbVertex
100
AcDb2dVertex
8
Layer01
10
206.349012
20
52.679828
30
0.0
0
VERTEX
100
AcDbVertex
100
AcDb2dVertex
8
Layer01
10
205.942017
20
52.754327
30
0.0
0
VERTEX
100
AcDbVertex
100
AcDb2dVertex
8
Layer01
10
205.535022
20
52.827975
30
0.0
0
VERTEX
100
AcDbVertex
100
AcDb2dVertex
8
Layer01
10
205.128028
20
52.900526
30
0.0
0
VERTEX
100
AcDbVertex
100
AcDb2dVertex
8
Layer01
10
204.721033
20
52.971746
30
0.0
0
VERTEX
100
AcDbVertex
100
AcDb2dVertex
8
Layer01
10
204.314038
20
53.041415
30
0.0
0
VERTEX
100
AcDbVertex
100
AcDb2dVertex
8
Layer01
10
203.907043
20
53.109331
30
0.0
0
VERTEX
100
AcDbVertex
100
AcDb2dVertex
8
Layer01
10
203.500049
20
53.175316
30
0.0
0
VERTEX
100
AcDbVertex
100
AcDb2dVertex
8
Layer01
10
203.093005
20
53.235776
30
0.0
0
VERTEX
100
AcDbVertex
100
AcDb2dVertex
8
Layer01
10
202.68601
20
53.294298
30
0.0
0
VERTEX
100
AcDbVertex
100
AcDb2dVertex
8
Layer01
10
202.279016
20
53.351065
30
0.0
0
VERTEX
100
AcDbVertex
100
AcDb2dVertex
8
Layer01
10
201.872021
20
53.406281
30
0.0
0
VERTEX
100
AcDbVertex
100
AcDb2dVertex
8
Layer01
10
201.465026
20
53.460164
30
0.0
0
VERTEX
100
AcDbVertex
100
AcDb2dVertex
8
Layer01
10
201.058031
20
53.51295
30
0.0
0
VERTEX
100
AcDbVertex
100
AcDb2dVertex
8
Layer01
10
200.651037
20
53.564883
30
0.0
0
VERTEX
100
AcDbVertex
100
AcDb2dVertex
8
Layer01
10
200.244042
20
53.616208
30
0.0
0
VERTEX
100
AcDbVertex
100
AcDb2dVertex
8
Layer01
10
199.837047
20
53.667171
30
0.0
0
VERTEX
100
AcDbVertex
100
AcDb2dVertex
8
Layer01
10
199.430052
20
53.718011
30
0.0
0
VERTEX
100
AcDbVertex
100
AcDb2dVertex
8
Layer01
10
199.023009
20
53.771261
30
0.0
0
VERTEX
100
AcDbVertex
100
AcDb2dVertex
8
Layer01
10
198.616014
20
53.824643
30
0.0
0
VERTEX
100
AcDbVertex
100
AcDb2dVertex
8
Layer01
10
198.20902
20
53.878181
30
0.0
0
VERTEX
100
AcDbVertex
100
AcDb2dVertex
8
Layer01
10
197.802025
20
53.931881
30
0.0
0
VERTEX
100
AcDbVertex
100
AcDb2dVertex
8
Layer01
10
197.39503
20
53.985737
30
0.0
0
VERTEX
100
AcDbVertex
100
AcDb2dVertex
8
Layer01
10
196.988035
20
54.039731
30
0.0
0
VERTEX
100
AcDbVertex
100
AcDb2dVertex
8
Layer01
10
196.581041
20
54.093837
30
0.0
0
VERTEX
100
AcDbVertex
100
AcDb2dVertex
8
Layer01
10
196.174046
20
54.148021
30
0.0
0
VERTEX
100
AcDbVertex
100
AcDb2dVertex
8
Layer01
10
195.767051
20
54.202246
30
0.0
0
VERTEX
100
AcDbVertex
100
AcDb2dVertex
8
Layer01
10
195.360056
20
54.256471
30
0.0
0
VERTEX
100
AcDbVertex
100
AcDb2dVertex
8
Layer01
10
194.953001
20
54.310082
30
0.0
0
VERTEX
100
AcDbVertex
100
AcDb2dVertex
8
Layer01
10
194.546006
20
54.363641
30
0.0
0
VERTEX
100
AcDbVertex
100
AcDb2dVertex
8
Layer01
10
194.139011
20
54.417154
30
0.0
0
VERTEX
100
AcDbVertex
100
AcDb2dVertex
8
Layer01
10
193.732017
20
54.470622
30
0.0
0
VERTEX
100
AcDbVertex
100
AcDb2dVertex
8
Layer01
10
193.325022
20
54.524044
30
0.0
0
VERTEX
100
AcDbVertex
100
AcDb2dVertex
8
Layer01
10
192.918027
20
54.57742
30
0.0
0
VERTEX
100
AcDbVertex
100
AcDb2dVertex
8
Layer01
10
192.511032
20
54.630749
30
0.0
0
VERTEX
100
AcDbVertex
100
AcDb2dVertex
8
Layer01
10
192.104038
20
54.684032
30
0.0
0
VERTEX
100
AcDbVertex
100
AcDb2dVertex
8
Layer01
10
191.697043
20
54.737268
30
0.0
0
VERTEX
100
AcDbVertex
100
AcDb2dVertex
8
Layer01
10
191.290048
20
54.790456
30
0.0
0
VERTEX
100
AcDbVertex
100
AcDb2dVertex
8
Layer01
10
190.883005
20
54.843603
30
0.0
0
VERTEX
100
AcDbVertex
100
AcDb2dVertex
8
Layer01
10
190.47601
20
54.896696
30
0.0
0
VERTEX
100
AcDbVertex
100
AcDb2dVertex
8
Layer01
10
190.069015
20
54.94974
30
0.0
0
VERTEX
100
AcDbVertex
100
AcDb2dVertex
8
Layer01
10
189.66202
20
55.002737
30
0.0
0
VERTEX
100
AcDbVertex
100
AcDb2dVertex
8
Layer01
10
189.255026
20
55.055684
30
0.0
0
VERTEX
100
AcDbVertex
100
AcDb2dVertex
8
Layer01
10
188.848031
20
55.108582
30
0.0
0
VERTEX
100
AcDbVertex
100
AcDb2dVertex
8
Layer01
10
188.441036
20
55.161431
30
0.0
0
VERTEX
100
AcDbVertex
100
AcDb2dVertex
8
Layer01
10
188.034041
20
55.21423
30
0.0
0
VERTEX
100
AcDbVertex
100
AcDb2dVertex
8
Layer01
10
187.627047
20
55.266979
30
0.0
0
VERTEX
100
AcDbVertex
100
AcDb2dVertex
8
Layer01
10
187.220052
20
55.319677
30
0.0
0
VERTEX
100
AcDbVertex
100
AcDb2dVertex
8
Layer01
10
186.813009
20
55.372331
30
0.0
0
VERTEX
100
AcDbVertex
100
AcDb2dVertex
8
Layer01
10
186.406014
20
55.424928
30
0.0
0
VERTEX
100
AcDbVertex
100
AcDb2dVertex
8
Layer01
10
185.999019
20
55.477474
30
0.0
0
VERTEX
100
AcDbVertex
100
AcDb2dVertex
8
Layer01
10
185.592024
20
55.529968
30
0.0
0
VERTEX
100
AcDbVertex
100
AcDb2dVertex
8
Layer01
10
185.18503
20
55.582412
30
0.0
0
VERTEX
100
AcDbVertex
100
AcDb2dVertex
8
Layer01
10
184.778035
20
55.634803
30
0.0
0
VERTEX
100
AcDbVertex
100
AcDb2dVertex
8
Layer01
10
184.37104
20
55.687144
30
0.0
0
VERTEX
100
AcDbVertex
100
AcDb2dVertex
8
Layer01
10
183.964045
20
55.739432
30
0.0
0
VERTEX
100
AcDbVertex
100
AcDb2dVertex
8
Layer01
10
183.557051
20
55.791668
30
0.0
0
VERTEX
100
AcDbVertex
100
AcDb2dVertex
8
Layer01
10
183.150056
20
55.843852
30
0.0
0
VERTEX
100
AcDbVertex
100
AcDb2dVertex
8
Layer01
10
182.743
20
55.895992
30
0.0
0
VERTEX
100
AcDbVertex
100
AcDb2dVertex
8
Layer01
10
182.336006
20
55.948072
30
0.0
0
VERTEX
100
AcDbVertex
100
AcDb2dVertex
8
Layer01
10
181.929011
20
56.000099
30
0.0
0
VERTEX
100
AcDbVertex
100
AcDb2dVertex
8
Layer01
10
181.522016
20
56.052072
30
0.0
0
VERTEX
100
AcDbVertex
100
AcDb2dVertex
8
Layer01
10
181.115021
20
56.103992
30
0.0
0
VERTEX
100
AcDbVertex
100
AcDb2dVertex
8
Layer01
10
180.708027
20
56.155858
30
0.0
0
VERTEX
100
AcDbVertex
100
AcDb2dVertex
8
Layer01
10
180.301032
20
56.20767
30
0.0
0
VERTEX
100
AcDbVertex
100
AcDb2dVertex
8
Layer01
10
179.894037
20
56.259428
30
0.0
0
VERTEX
100
AcDbVertex
100
AcDb2dVertex
8
Layer01
10
179.487042
20
56.311131
30
0.0
0
VERTEX
100
AcDbVertex
100
AcDb2dVertex
8
Layer01
10
179.080048
20
56.362778
30
0.0
0
VERTEX
100
AcDbVertex
100
AcDb2dVertex
8
Layer01
10
178.673004
20
56.414378
30
0.0
0
VERTEX
100
AcDbVertex
100
AcDb2dVertex
8
Layer01
10
178.26601
20
56.465915
30
0.0
0
VERTEX
100
AcDbVertex
100
AcDb2dVertex
8
Layer01
10
177.859015
20
56.517397
30
0.0
0
VERTEX
100
AcDbVertex
100
AcDb2dVertex
8
Layer01
10
177.45202
20
56.568822
30
0.0
0
VERTEX
100
AcDbVertex
100
AcDb2dVertex
8
Layer01
10
177.045025
20
56.62019
30
0.0
0
VERTEX
100
AcDbVertex
100
AcDb2dVertex
8
Layer01
10
176.63803
20
56.671501
30
0.0
0
VERTEX
100
AcDbVertex
100
AcDb2dVertex
8
Layer01
10
176.231036
20
56.722755
30
0.0
0
VERTEX
100
AcDbVertex
100
AcDb2dVertex
8
Layer01
10
175.824041
20
56.773951
30
0.0
0
VERTEX
100
AcDbVertex
100
AcDb2dVertex
8
Layer01
10
175.417046
20
56.825088
30
0.0
0
VERTEX
100
AcDbVertex
100
AcDb2dVertex
8
Layer01
10
175.010051
20
56.876168
30
0.0
0
VERTEX
100
AcDbVertex
100
AcDb2dVertex
8
Layer01
10
174.603008
20
56.927193
30
0.0
0
VERTEX
100
AcDbVertex
100
AcDb2dVertex
8
Layer01
10
174.196013
20
56.978153
30
0.0
0
VERTEX
100
AcDbVertex
100
AcDb2dVertex
8
Layer01
10
173.789019
20
57.029054
30
0.0
0
VERTEX
100
AcDbVertex
100
AcDb2dVertex
8
Layer01
10
173.382024
20
57.079895
30
0.0
0
VERTEX
100
AcDbVertex
100
AcDb2dVertex
8
Layer01
10
172.975029
20
57.130678
30
0.0
0
VERTEX
100
AcDbVertex
100
AcDb2dVertex
8
Layer01
10
172.568034
20
57.181401
30
0.0
0
VERTEX
100
AcDbVertex
100
AcDb2dVertex
8
Layer01
10
172.16104
20
57.232064
30
0.0
0
VERTEX
100
AcDbVertex
100
AcDb2dVertex
8
Layer01
10
171.754045
20
57.282668
30
0.0
0
VERTEX
100
AcDbVertex
100
AcDb2dVertex
8
Layer01
10
171.34705
20
57.333212
30
0.0
0
VERTEX
100
AcDbVertex
100
AcDb2dVertex
8
Layer01
10
170.940055
20
57.383696
30
0.0
0
VERTEX
100
AcDbVertex
100
AcDb2dVertex
8
Layer01
10
170.533
20
57.433215
30
0.0
0
VERTEX
100
AcDbVertex
100
AcDb2dVertex
8
Layer01
10
170.126005
20
57.482735
30
0.0
0
VERTEX
100
AcDbVertex
100
AcDb2dVertex
8
Layer01
10
169.71901
20
57.532329
30
0.0
0
VERTEX
100
AcDbVertex
100
AcDb2dVertex
8
Layer01
10
169.312016
20
57.582057
30
0.0
0
VERTEX
100
AcDbVertex
100
AcDb2dVertex
8
Layer01
10
168.905021
20
57.631971
30
0.0
0
VERTEX
100
AcDbVertex
100
AcDb2dVertex
8
Layer01
10
168.498026
20
57.682111
30
0.0
0
VERTEX
100
AcDbVertex
100
AcDb2dVertex
8
Layer01
10
168.091031
20
57.732504
30
0.0
0
VERTEX
100
AcDbVertex
100
AcDb2dVertex
8
Layer01
10
167.684037
20
57.78316
30
0.0
0
VERTEX
100
AcDbVertex
100
AcDb2dVertex
8
Layer01
10
167.277042
20
57.83407
30
0.0
0
VERTEX
100
AcDbVertex
100
AcDb2dVertex
8
Layer01
10
166.870047
20
57.885203
30
0.0
0
VERTEX
100
AcDbVertex
100
AcDb2dVertex
8
Layer01
10
166.463004
20
57.940165
30
0.0
0
VERTEX
100
AcDbVertex
100
AcDb2dVertex
8
Layer01
10
166.056009
20
57.994927
30
0.0
0
VERTEX
100
AcDbVertex
100
AcDb2dVertex
8
Layer01
10
165.649014
20
58.049116
30
0.0
0
VERTEX
100
AcDbVertex
100
AcDb2dVertex
8
Layer01
10
165.24202
20
58.102343
30
0.0
0
VERTEX
100
AcDbVertex
100
AcDb2dVertex
8
Layer01
10
164.835025
20
58.154215
30
0.0
0
VERTEX
100
AcDbVertex
100
AcDb2dVertex
8
Layer01
10
164.42803
20
58.204344
30
0.0
0
VERTEX
100
AcDbVertex
100
AcDb2dVertex
8
Layer01
10
164.021035
20
58.252358
30
0.0
0
VERTEX
100
AcDbVertex
100
AcDb2dVertex
8
Layer01
10
163.61404
20
58.297906
30
0.0
0
VERTEX
100
AcDbVertex
100
AcDb2dVertex
8
Layer01
10
163.207046
20
58.340667
30
0.0
0
VERTEX
100
AcDbVertex
100
AcDb2dVertex
8
Layer01
10
162.800051
20
58.38036
30
0.0
0
VERTEX
100
AcDbVertex
100
AcDb2dVertex
8
Layer01
10
162.393008
20
58.411266
30
0.0
0
VERTEX
100
AcDbVertex
100
AcDb2dVertex
8
Layer01
10
161.986013
20
58.439099
30
0.0
0
VERTEX
100
AcDbVertex
100
AcDb2dVertex
8
Layer01
10
161.579018
20
58.464146
30
0.0
0
VERTEX
100
AcDbVertex
100
AcDb2dVertex
8
Layer01
10
161.172023
20
58.486726
30
0.0
0
VERTEX
100
AcDbVertex
100
AcDb2dVertex
8
Layer01
10
160.765029
20
58.50719
30
0.0
0
VERTEX
100
AcDbVertex
100
AcDb2dVertex
8
Layer01
10
160.358034
20
58.525912
30
0.0
0
VERTEX
100
AcDbVertex
100
AcDb2dVertex
8
Layer01
10
159.951039
20
58.543278
30
0.0
0
VERTEX
100
AcDbVertex
100
AcDb2dVertex
8
Layer01
10
159.544044
20
58.559682
30
0.0
0
VERTEX
100
AcDbVertex
100
AcDb2dVertex
8
Layer01
10
159.13705
20
58.575512
30
0.0
0
VERTEX
100
AcDbVertex
100
AcDb2dVertex
8
Layer01
10
158.730055
20
58.591148
30
0.0
0
VERTEX
100
AcDbVertex
100
AcDb2dVertex
8
Layer01
10
158.322999
20
58.610611
30
0.0
0
VERTEX
100
AcDbVertex
100
AcDb2dVertex
8
Layer01
10
157.916005
20
58.630292
30
0.0
0
VERTEX
100
AcDbVertex
100
AcDb2dVertex
8
Layer01
10
157.50901
20
58.650227
30
0.0
0
VERTEX
100
AcDbVertex
100
AcDb2dVertex
8
Layer01
10
157.102015
20
58.670422
30
0.0
0
VERTEX
100
AcDbVertex
100
AcDb2dVertex
8
Layer01
10
156.69502
20
58.69087
30
0.0
0
VERTEX
100
AcDbVertex
100
AcDb2dVertex
8
Layer01
10
156.288026
20
58.711541
30
0.0
0
VERTEX
100
AcDbVertex
100
AcDb2dVertex
8
Layer01
10
155.881031
20
58.732396
30
0.0
0
VERTEX
100
AcDbVertex
100
AcDb2dVertex
8
Layer01
10
155.474036
20
58.753382
30
0.0
0
VERTEX
100
AcDbVertex
100
AcDb2dVertex
8
Layer01
10
155.067041
20
58.77444
30
0.0
0
VERTEX
100
AcDbVertex
100
AcDb2dVertex
8
Layer01
10
154.660047
20
58.795502
30
0.0
0
VERTEX
100
AcDbVertex
100
AcDb2dVertex
8
Layer01
10
154.253003
20
58.815589
30
0.0
0
VERTEX
100
AcDbVertex
100
AcDb2dVertex
8
Layer01
10
153.846009
20
58.83561
30
0.0
0
VERTEX
100
AcDbVertex
100
AcDb2dVertex
8
Layer01
10
153.439014
20
58.855567
30
0.0
0
VERTEX
100
AcDbVertex
100
AcDb2dVertex
8
Layer01
10
153.032019
20
58.875462
30
0.0
0
VERTEX
100
AcDbVertex
100
AcDb2dVertex
8
Layer01
10
152.625024
20
58.895293
30
0.0
0
VERTEX
100
AcDbVertex
100
AcDb2dVertex
8
Layer01
10
152.218029
20
58.915061
30
0.0
0
VERTEX
100
AcDbVertex
100
AcDb2dVertex
8
Layer01
10
151.811035
20
58.934767
30
0.0
0
VERTEX
100
AcDbVertex
100
AcDb2dVertex
8
Layer01
10
151.40404
20
58.95441
30
0.0
0
VERTEX
100
AcDbVertex
100
AcDb2dVertex
8
Layer01
10
150.997045
20
58.97399
30
0.0
0
VERTEX
100
AcDbVertex
100
AcDb2dVertex
8
Layer01
10
150.59005
20
58.993508
30
0.0
0
VERTEX
100
AcDbVertex
100
AcDb2dVertex
8
Layer01
10
150.183007
20
59.012966
30
0.0
0
VERTEX
100
AcDbVertex
100
AcDb2dVertex
8
Layer01
10
149.776012
20
59.032359
30
0.0
0
VERTEX
100
AcDbVertex
100
AcDb2dVertex
8
Layer01
10
149.369018
20
59.051691
30
0.0
0
VERTEX
100
AcDbVertex
100
AcDb2dVertex
8
Layer01
10
148.962023
20
59.070961
30
0.0
0
VERTEX
100
AcDbVertex
100
AcDb2dVertex
8
Layer01
10
148.555028
20
59.090169
30
0.0
0
VERTEX
100
AcDbVertex
100
AcDb2dVertex
8
Layer01
10
148.148033
20
59.109315
30
0.0
0
VERTEX
100
AcDbVertex
100
AcDb2dVertex
8
Layer01
10
147.741039
20
59.1284
30
0.0
0
VERTEX
100
AcDbVertex
100
AcDb2dVertex
8
Layer01
10
147.334044
20
59.147423
30
0.0
0
VERTEX
100
AcDbVertex
100
AcDb2dVertex
8
Layer01
10
146.927049
20
59.166385
30
0.0
0
VERTEX
100
AcDbVertex
100
AcDb2dVertex
8
Layer01
10
146.520054
20
59.185286
30
0.0
0
VERTEX
100
AcDbVertex
100
AcDb2dVertex
8
Layer01
10
146.113011
20
59.204129
30
0.0
0
VERTEX
100
AcDbVertex
100
AcDb2dVertex
8
Layer01
10
145.706016
20
59.222908
30
0.0
0
VERTEX
100
AcDbVertex
100
AcDb2dVertex
8
Layer01
10
145.299022
20
59.241626
30
0.0
0
VERTEX
100
AcDbVertex
100
AcDb2dVertex
8
Layer01
10
144.892027
20
59.260284
30
0.0
0
VERTEX
100
AcDbVertex
100
AcDb2dVertex
8
Layer01
10
144.485032
20
59.278881
30
0.0
0
VERTEX
100
AcDbVertex
100
AcDb2dVertex
8
Layer01
10
144.078037
20
59.297418
30
0.0
0
VERTEX
100
AcDbVertex
100
AcDb2dVertex
8
Layer01
10
143.671043
20
59.315894
30
0.0
0
VERTEX
100
AcDbVertex
100
AcDb2dVertex
8
Layer01
10
143.264048
20
59.334309
30
0.0
0
VERTEX
100
AcDbVertex
100
AcDb2dVertex
8
Layer01
10
142.857053
20
59.352665
30
0.0
0
VERTEX
100
AcDbVertex
100
AcDb2dVertex
8
Layer01
10
142.450058
20
59.37096
30
0.0
0
VERTEX
100
AcDbVertex
100
AcDb2dVertex
8
Layer01
10
142.043003
20
59.389197
30
0.0
0
VERTEX
100
AcDbVertex
100
AcDb2dVertex
8
Layer01
10
141.636008
20
59.407372
30
0.0
0
VERTEX
100
AcDbVertex
100
AcDb2dVertex
8
Layer01
10
141.229013
20
59.425486
30
0.0
0
VERTEX
100
AcDbVertex
100
AcDb2dVertex
8
Layer01
10
140.822019
20
59.443541
30
0.0
0
VERTEX
100
AcDbVertex
100
AcDb2dVertex
8
Layer01
10
140.415024
20
59.461536
30
0.0
0
VERTEX
100
AcDbVertex
100
AcDb2dVertex
8
Layer01
10
140.008029
20
59.47947
30
0.0
0
VERTEX
100
AcDbVertex
100
AcDb2dVertex
8
Layer01
10
139.601034
20
59.497345
30
0.0
0
VERTEX
100
AcDbVertex
100
AcDb2dVertex
8
Layer01
10
139.194039
20
59.51516
30
0.0
0
VERTEX
100
AcDbVertex
100
AcDb2dVertex
8
Layer01
10
138.787045
20
59.532915
30
0.0
0
VERTEX
100
AcDbVertex
100
AcDb2dVertex
8
Layer01
10
138.38005
20
59.55061
30
0.0
0
VERTEX
100
AcDbVertex
100
AcDb2dVertex
8
Layer01
10
137.973007
20
59.568247
30
0.0
0
VERTEX
100
AcDbVertex
100
AcDb2dVertex
8
Layer01
10
137.566012
20
59.585823
30
0.0
0
VERTEX
100
AcDbVertex
100
AcDb2dVertex
8
Layer01
10
137.159017
20
59.603339
30
0.0
0
VERTEX
100
AcDbVertex
100
AcDb2dVertex
8
Layer01
10
136.752022
20
59.620795
30
0.0
0
VERTEX
100
AcDbVertex
100
AcDb2dVertex
8
Layer01
10
136.345028
20
59.638191
30
0.0
0
VERTEX
100
AcDbVertex
100
AcDb2dVertex
8
Layer01
10
135.938033
20
59.655528
30
0.0
0
VERTEX
100
AcDbVertex
100
AcDb2dVertex
8
Layer01
10
135.531038
20
59.672805
30
0.0
0
VERTEX
100
AcDbVertex
100
AcDb2dVertex
8
Layer01
10
135.124043
20
59.690022
30
0.0
0
VERTEX
100
AcDbVertex
100
AcDb2dVertex
8
Layer01
10
134.717049
20
59.707179
30
0.0
0
VERTEX
100
AcDbVertex
100
AcDb2dVertex
8
Layer01
10
134.310054
20
59.724277
30
0.0
0
VERTEX
100
AcDbVertex
100
AcDb2dVertex
8
Layer01
10
133.903011
20
59.741316
30
0.0
0
VERTEX
100
AcDbVertex
100
AcDb2dVertex
8
Layer01
10
133.496016
20
59.758294
30
0.0
0
VERTEX
100
AcDbVertex
100
AcDb2dVertex
8
Layer01
10
133.089021
20
59.775212
30
0.0
0
VERTEX
100
AcDbVertex
100
AcDb2dVertex
8
Layer01
10
132.682026
20
59.79207
30
0.0
0
VERTEX
100
AcDbVertex
100
AcDb2dVertex
8
Layer01
10
132.275032
20
59.808869
30
0.0
0
VERTEX
100
AcDbVertex
100
AcDb2dVertex
8
Layer01
10
131.868037
20
59.825607
30
0.0
0
VERTEX
100
AcDbVertex
100
AcDb2dVertex
8
Layer01
10
131.461042
20
59.842285
30
0.0
0
VERTEX
100
AcDbVertex
100
AcDb2dVertex
8
Layer01
10
131.054047
20
59.858904
30
0.0
0
VERTEX
100
AcDbVertex
100
AcDb2dVertex
8
Layer01
10
130.647052
20
59.875462
30
0.0
0
VERTEX
100
AcDbVertex
100
AcDb2dVertex
8
Layer01
10
130.240058
20
59.891961
30
0.0
0
VERTEX
100
AcDbVertex
100
AcDb2dVertex
8
Layer01
10
129.833002
20
59.907441
30
0.0
0
VERTEX
100
AcDbVertex
100
AcDb2dVertex
8
Layer01
10
129.426008
20
59.92293
30
0.0
0
VERTEX
100
AcDbVertex
100
AcDb2dVertex
8
Layer01
10
129.019013
20
59.938501
30
0.0
0
VERTEX
100
AcDbVertex
100
AcDb2dVertex
8
Layer01
10
128.612018
20
59.954216
30
0.0
0
VERTEX
100
AcDbVertex
100
AcDb2dVertex
8
Layer01
10
128.205023
20
59.970131
30
0.0
0
VERTEX
100
AcDbVertex
100
AcDb2dVertex
8
Layer01
10
127.798029
20
59.986287
30
0.0
0
VERTEX
100
AcDbVertex
100
AcDb2dVertex
8
Layer01
10
127.391034
20
60.002714
30
0.0
0
VERTEX
100
AcDbVertex
100
AcDb2dVertex
8
Layer01
10
126.984039
20
60.019423
30
0.0
0
VERTEX
100
AcDbVertex
100
AcDb2dVertex
8
Layer01
10
126.577044
20
60.036403
30
0.0
0
VERTEX
100
AcDbVertex
100
AcDb2dVertex
8
Layer01
10
126.170049
20
60.053621
30
0.0
0
VERTEX
100
AcDbVertex
100
AcDb2dVertex
8
Layer01
10
125.763006
20
60.074863
30
0.0
0
VERTEX
100
AcDbVertex
100
AcDb2dVertex
8
Layer01
10
125.356011
20
60.095904
30
0.0
0
VERTEX
100
AcDbVertex
100
AcDb2dVertex
8
Layer01
10
124.949017
20
60.11635
30
0.0
0
VERTEX
100
AcDbVertex
100
AcDb2dVertex
8
Layer01
10
124.542022
20
60.135791
30
0.0
0
VERTEX
100
AcDbVertex
100
AcDb2dVertex
8
Layer01
10
124.135027
20
60.153815
30
0.0
0
VERTEX
100
AcDbVertex
100
AcDb2dVertex
8
Layer01
10
123.728032
20
60.170014
30
0.0
0
VERTEX
100
AcDbVertex
100
AcDb2dVertex
8
Layer01
10
123.321038
20
60.183998
30
0.0
0
VERTEX
100
AcDbVertex
100
AcDb2dVertex
8
Layer01
10
122.914043
20
60.195398
30
0.0
0
VERTEX
100
AcDbVertex
100
AcDb2dVertex
8
Layer01
10
122.507048
20
60.203876
30
0.0
0
VERTEX
100
AcDbVertex
100
AcDb2dVertex
8
Layer01
10
122.100053
20
60.209138
30
0.0
0
VERTEX
100
AcDbVertex
100
AcDb2dVertex
8
Layer01
10
121.69301
20
60.205175
30
0.0
0
VERTEX
100
AcDbVertex
100
AcDb2dVertex
8
Layer01
10
121.286015
20
60.197995
30
0.0
0
VERTEX
100
AcDbVertex
100
AcDb2dVertex
8
Layer01
10
120.879021
20
60.187891
30
0.0
0
VERTEX
100
AcDbVertex
100
AcDb2dVertex
8
Layer01
10
120.472026
20
60.1752
30
0.0
0
VERTEX
100
AcDbVertex
100
AcDb2dVertex
8
Layer01
10
120.065031
20
60.160289
30
0.0
0
VERTEX
100
AcDbVertex
100
AcDb2dVertex
8
Layer01
10
119.658036
20
60.143549
30
0.0
0
VERTEX
100
AcDbVertex
100
AcDb2dVertex
8
Layer01
10
119.251042
20
60.125385
30
0.0
0
VERTEX
100
AcDbVertex
100
AcDb2dVertex
8
Layer01
10
118.844047
20
60.10621
30
0.0
0
VERTEX
100
AcDbVertex
100
AcDb2dVertex
8
Layer01
10
118.437052
20
60.086432
30
0.0
0
VERTEX
100
AcDbVertex
100
AcDb2dVertex
8
Layer01
10
118.030057
20
60.066447
30
0.0
0
VERTEX
100
AcDbVertex
100
AcDb2dVertex
8
Layer01
10
117.623002
20
60.050468
30
0.0
0
VERTEX
100
AcDbVertex
100
AcDb2dVertex
8
Layer01
10
117.216007
20
60.03472
30
0.0
0
VERTEX
100
AcDbVertex
100
AcDb2dVertex
8
Layer01
10
116.809012
20
60.019234
30
0.0
0
VERTEX
100
AcDbVertex
100
AcDb2dVertex
8
Layer01
10
116.402018
20
60.004016
30
0.0
0
VERTEX
100
AcDbVertex
100
AcDb2dVertex
8
Layer01
10
115.995023
20
59.989057
30
0.0
0
VERTEX
100
AcDbVertex
100
AcDb2dVertex
8
Layer01
10
115.588028
20
59.974327
30
0.0
0
VERTEX
100
AcDbVertex
100
AcDb2dVertex
8
Layer01
10
115.181033
20
59.959783
30
0.0
0
VERTEX
100
AcDbVertex
100
AcDb2dVertex
8
Layer01
10
114.774039
20
59.945369
30
0.0
0
VERTEX
100
AcDbVertex
100
AcDb2dVertex
8
Layer01
10
114.367044
20
59.931021
30
0.0
0
VERTEX
100
AcDbVertex
100
AcDb2dVertex
8
Layer01
10
113.960049
20
59.91667
30
0.0
0
VERTEX
100
AcDbVertex
100
AcDb2dVertex
8
Layer01
10
113.553006
20
59.901281
30
0.0
0
VERTEX
100
AcDbVertex
100
AcDb2dVertex
8
Layer01
10
113.146011
20
59.885817
30
0.0
0
VERTEX
100
AcDbVertex
100
AcDb2dVertex
8
Layer01
10
112.739016
20
59.870275
30
0.0
0
VERTEX
100
AcDbVertex
100
AcDb2dVertex
8
Layer01
10
112.332021
20
59.854655
30
0.0
0
VERTEX
100
AcDbVertex
100
AcDb2dVertex
8
Layer01
10
111.925027
20
59.838955
30
0.0
0
VERTEX
100
AcDbVertex
100
AcDb2dVertex
8
Layer01
10
111.518032
20
59.823176
30
0.0
0
VERTEX
100
AcDbVertex
100
AcDb2dVertex
8
Layer01
10
111.111037
20
59.807315
30
0.0
0
VERTEX
100
AcDbVertex
100
AcDb2dVertex
8
Layer01
10
110.704042
20
59.791374
30
0.0
0
VERTEX
100
AcDbVertex
100
AcDb2dVertex
8
Layer01
10
110.297048
20
59.77535
30
0.0
0
VERTEX
100
AcDbVertex
100
AcDb2dVertex
8
Layer01
10
109.890053
20
59.759242
30
0.0
0
VERTEX
100
AcDbVertex
100
AcDb2dVertex
8
Layer01
10
109.48301
20
59.743049
30
0.0
0
VERTEX
100
AcDbVertex
100
AcDb2dVertex
8
Layer01
10
109.076015
20
59.726773
30
0.0
0
VERTEX
100
AcDbVertex
100
AcDb2dVertex
8
Layer01
10
108.66902
20
59.710411
30
0.0
0
VERTEX
100
AcDbVertex
100
AcDb2dVertex
8
Layer01
10
108.262025
20
59.693964
30
0.0
0
VERTEX
100
AcDbVertex
100
AcDb2dVertex
8
Layer01
10
107.855031
20
59.677429
30
0.0
0
VERTEX
100
AcDbVertex
100
AcDb2dVertex
8
Layer01
10
107.448036
20
59.660808
30
0.0
0
VERTEX
100
AcDbVertex
100
AcDb2dVertex
8
Layer01
10
107.041041
20
59.644098
30
0.0
0
VERTEX
100
AcDbVertex
100
AcDb2dVertex
8
Layer01
10
106.634046
20
59.627299
30
0.0
0
VERTEX
100
AcDbVertex
100
AcDb2dVertex
8
Layer01
10
106.227052
20
59.61041
30
0.0
0
VERTEX
100
AcDbVertex
100
AcDb2dVertex
8
Layer01
10
105.820057
20
59.593431
30
0.0
0
VERTEX
100
AcDbVertex
100
AcDb2dVertex
8
Layer01
10
105.413001
20
59.576358
30
0.0
0
VERTEX
100
AcDbVertex
100
AcDb2dVertex
8
Layer01
10
105.006007
20
59.559195
30
0.0
0
VERTEX
100
AcDbVertex
100
AcDb2dVertex
8
Layer01
10
104.599012
20
59.541941
30
0.0
0
VERTEX
100
AcDbVertex
100
AcDb2dVertex
8
Layer01
10
104.192017
20
59.524592
30
0.0
0
VERTEX
100
AcDbVertex
100
AcDb2dVertex
8
Layer01
10
103.785022
20
59.50715
30
0.0
0
VERTEX
100
AcDbVertex
100
AcDb2dVertex
8
Layer01
10
103.378028
20
59.489613
30
0.0
0
VERTEX
100
AcDbVertex
100
AcDb2dVertex
8
Layer01
10
102.971033
20
59.47198
30
0.0
0
VERTEX
100
AcDbVertex
100
AcDb2dVertex
8
Layer01
10
102.564038
20
59.454251
30
0.0
0
VERTEX
100
AcDbVertex
100
AcDb2dVertex
8
Layer01
10
102.157043
20
59.436426
30
0.0
0
VERTEX
100
AcDbVertex
100
AcDb2dVertex
8
Layer01
10
101.750049
20
59.418502
30
0.0
0
VERTEX
100
AcDbVertex
100
AcDb2dVertex
8
Layer01
10
101.342999
20
59.400478
30
0.0
0
VERTEX
100
AcDbVertex
100
AcDb2dVertex
8
Layer01
10
100.935998
20
59.382356
30
0.0
0
VERTEX
100
AcDbVertex
100
AcDb2dVertex
8
Layer01
10
100.528998
20
59.364135
30
0.0
0
VERTEX
100
AcDbVertex
100
AcDb2dVertex
8
Layer01
10
100.121997
20
59.345813
30
0.0
0
VERTEX
100
AcDbVertex
100
AcDb2dVertex
8
Layer01
10
99.714996
20
59.32739
30
0.0
0
VERTEX
100
AcDbVertex
100
AcDb2dVertex
8
Layer01
10
99.307995
20
59.308864
30
0.0
0
VERTEX
100
AcDbVertex
100
AcDb2dVertex
8
Layer01
10
98.900994
20
59.290235
30
0.0
0
VERTEX
100
AcDbVertex
100
AcDb2dVertex
8
Layer01
10
98.493993
20
59.271502
30
0.0
0
VERTEX
100
AcDbVertex
100
AcDb2dVertex
8
Layer01
10
98.086993
20
59.252664
30
0.0
0
VERTEX
100
AcDbVertex
100
AcDb2dVertex
8
Layer01
10
97.272997
20
59.214672
30
0.0
0
VERTEX
100
AcDbVertex
100
AcDb2dVertex
8
Layer01
10
96.865996
20
59.195515
30
0.0
0
VERTEX
100
AcDbVertex
100
AcDb2dVertex
8
Layer01
10
96.458995
20
59.176251
30
0.0
0
VERTEX
100
AcDbVertex
100
AcDb2dVertex
8
Layer01
10
96.051995
20
59.156878
30
0.0
0
VERTEX
100
AcDbVertex
100
AcDb2dVertex
8
Layer01
10
95.644994
20
59.137396
30
0.0
0
VERTEX
100
AcDbVertex
100
AcDb2dVertex
8
Layer01
10
95.237993
20
59.117804
30
0.0
0
VERTEX
100
AcDbVertex
100
AcDb2dVertex
8
Layer01
10
94.830992
20
59.098101
30
0.0
0
VERTEX
100
AcDbVertex
100
AcDb2dVertex
8
Layer01
10
94.423991
20
59.078287
30
0.0
0
VERTEX
100
AcDbVertex
100
AcDb2dVertex
8
Layer01
10
94.01699
20
59.05836
30
0.0
0
VERTEX
100
AcDbVertex
100
AcDb2dVertex
8
Layer01
10
93.203001
20
59.018169
30
0.0
0
VERTEX
100
AcDbVertex
100
AcDb2dVertex
8
Layer01
10
92.796
20
58.997902
30
0.0
0
VERTEX
100
AcDbVertex
100
AcDb2dVertex
8
Layer01
10
92.388999
20
58.97752
30
0.0
0
VERTEX
100
AcDbVertex
100
AcDb2dVertex
8
Layer01
10
91.981998
20
58.957021
30
0.0
0
VERTEX
100
AcDbVertex
100
AcDb2dVertex
8
Layer01
10
91.574998
20
58.936404
30
0.0
0
VERTEX
100
AcDbVertex
100
AcDb2dVertex
8
Layer01
10
91.167997
20
58.915669
30
0.0
0
VERTEX
100
AcDbVertex
100
AcDb2dVertex
8
Layer01
10
90.760996
20
58.894814
30
0.0
0
VERTEX
100
AcDbVertex
100
AcDb2dVertex
8
Layer01
10
90.353995
20
58.873839
30
0.0
0
VERTEX
100
AcDbVertex
100
AcDb2dVertex
8
Layer01
10
89.946994
20
58.852743
30
0.0
0
VERTEX
100
AcDbVertex
100
AcDb2dVertex
8
Layer01
10
89.132999
20
58.808864
30
0.0
0
VERTEX
100
AcDbVertex
100
AcDb2dVertex
8
Layer01
10
88.725998
20
58.786179
30
0.0
0
VERTEX
100
AcDbVertex
100
AcDb2dVertex
8
Layer01
10
88.318997
20
58.763563
30
0.0
0
VERTEX
100
AcDbVertex
100
AcDb2dVertex
8
Layer01
10
87.911996
20
58.741103
30
0.0
0
VERTEX
100
AcDbVertex
100
AcDb2dVertex
8
Layer01
10
87.504995
20
58.718873
30
0.0
0
VERTEX
100
AcDbVertex
100
AcDb2dVertex
8
Layer01
10
87.097995
20
58.696932
30
0.0
0
VERTEX
100
AcDbVertex
100
AcDb2dVertex
8
Layer01
10
86.690994
20
58.675318
30
0.0
0
VERTEX
100
AcDbVertex
100
AcDb2dVertex
8
Layer01
10
86.283993
20
58.654045
30
0.0
0
VERTEX
100
AcDbVertex
100
AcDb2dVertex
8
Layer01
10
85.876992
20
58.633099
30
0.0
0
VERTEX
100
AcDbVertex
100
AcDb2dVertex
8
Layer01
10
85.062997
20
58.597243
30
0.0
0
VERTEX
100
AcDbVertex
100
AcDb2dVertex
8
Layer01
10
84.655996
20
58.581733
30
0.0
0
VERTEX
100
AcDbVertex
100
AcDb2dVertex
8
Layer01
10
84.248995
20
58.565358
30
0.0
0
VERTEX
100
AcDbVertex
100
AcDb2dVertex
8
Layer01
10
83.841994
20
58.547559
30
0.0
0
VERTEX
100
AcDbVertex
100
AcDb2dVertex
8
Layer01
10
83.434993
20
58.527767
30
0.0
0
VERTEX
100
AcDbVertex
100
AcDb2dVertex
8
Layer01
10
83.027992
20
58.505426
30
0.0
0
VERTEX
100
AcDbVertex
100
AcDb2dVertex
8
Layer01
10
82.620992
20
58.479998
30
0.0
0
VERTEX
100
AcDbVertex
100
AcDb2dVertex
8
Layer01
10
82.213991
20
58.450977
30
0.0
0
VERTEX
100
AcDbVertex
100
AcDb2dVertex
8
Layer01
10
81.80699
20
58.417901
30
0.0
0
VERTEX
100
AcDbVertex
100
AcDb2dVertex
8
Layer01
10
80.993
20
58.330124
30
0.0
0
VERTEX
100
AcDbVertex
100
AcDb2dVertex
8
Layer01
10
80.586
20
58.27542
30
0.0
0
VERTEX
100
AcDbVertex
100
AcDb2dVertex
8
Layer01
10
80.178999
20
58.21666
30
0.0
0
VERTEX
100
AcDbVertex
100
AcDb2dVertex
8
Layer01
10
79.771998
20
58.154304
30
0.0
0
VERTEX
100
AcDbVertex
100
AcDb2dVertex
8
Layer01
10
79.364997
20
58.088857
30
0.0
0
VERTEX
100
AcDbVertex
100
AcDb2dVertex
8
Layer01
10
78.957996
20
58.020856
30
0.0
0
VERTEX
100
AcDbVertex
100
AcDb2dVertex
8
Layer01
10
78.550995
20
57.950857
30
0.0
0
VERTEX
100
AcDbVertex
100
AcDb2dVertex
8
Layer01
10
78.143995
20
57.879426
30
0.0
0
VERTEX
100
AcDbVertex
100
AcDb2dVertex
8
Layer01
10
77.736994
20
57.807124
30
0.0
0
VERTEX
100
AcDbVertex
100
AcDb2dVertex
8
Layer01
10
76.922998
20
57.66733
30
0.0
0
VERTEX
100
AcDbVertex
100
AcDb2dVertex
8
Layer01
10
76.515997
20
57.600434
30
0.0
0
VERTEX
100
AcDbVertex
100
AcDb2dVertex
8
Layer01
10
76.108997
20
57.533853
30
0.0
0
VERTEX
100
AcDbVertex
100
AcDb2dVertex
8
Layer01
10
75.701996
20
57.4676
30
0.0
0
VERTEX
100
AcDbVertex
100
AcDb2dVertex
8
Layer01
10
75.294995
20
57.401658
30
0.0
0
VERTEX
100
AcDbVertex
100
AcDb2dVertex
8
Layer01
10
74.887994
20
57.335989
30
0.0
0
VERTEX
100
AcDbVertex
100
AcDb2dVertex
8
Layer01
10
74.480993
20
57.270533
30
0.0
0
VERTEX
100
AcDbVertex
100
AcDb2dVertex
8
Layer01
10
74.073992
20
57.205214
30
0.0
0
VERTEX
100
AcDbVertex
100
AcDb2dVertex
8
Layer01
10
73.666992
20
57.139943
30
0.0
0
VERTEX
100
AcDbVertex
100
AcDb2dVertex
8
Layer01
10
72.853002
20
57.007847
30
0.0
0
VERTEX
100
AcDbVertex
100
AcDb2dVertex
8
Layer01
10
72.446001
20
56.940918
30
0.0
0
VERTEX
100
AcDbVertex
100
AcDb2dVertex
8
Layer01
10
72.039
20
56.873842
30
0.0
0
VERTEX
100
AcDbVertex
100
AcDb2dVertex
8
Layer01
10
71.632
20
56.806617
30
0.0
0
VERTEX
100
AcDbVertex
100
AcDb2dVertex
8
Layer01
10
71.224999
20
56.739243
30
0.0
0
VERTEX
100
AcDbVertex
100
AcDb2dVertex
8
Layer01
10
70.817998
20
56.671719
30
0.0
0
VERTEX
100
AcDbVertex
100
AcDb2dVertex
8
Layer01
10
70.410997
20
56.604044
30
0.0
0
VERTEX
100
AcDbVertex
100
AcDb2dVertex
8
Layer01
10
70.003996
20
56.536217
30
0.0
0
VERTEX
100
AcDbVertex
100
AcDb2dVertex
8
Layer01
10
69.596995
20
56.468238
30
0.0
0
VERTEX
100
AcDbVertex
100
AcDb2dVertex
8
Layer01
10
68.783
20
56.330599
30
0.0
0
VERTEX
100
AcDbVertex
100
AcDb2dVertex
8
Layer01
10
68.375999
20
56.261028
30
0.0
0
VERTEX
100
AcDbVertex
100
AcDb2dVertex
8
Layer01
10
67.968998
20
56.191482
30
0.0
0
VERTEX
100
AcDbVertex
100
AcDb2dVertex
8
Layer01
10
67.561997
20
56.122041
30
0.0
0
VERTEX
100
AcDbVertex
100
AcDb2dVertex
8
Layer01
10
67.154997
20
56.052773
30
0.0
0
VERTEX
100
AcDbVertex
100
AcDb2dVertex
8
Layer01
10
66.747996
20
55.983733
30
0.0
0
VERTEX
100
AcDbVertex
100
AcDb2dVertex
8
Layer01
10
66.340995
20
55.914956
30
0.0
0
VERTEX
100
AcDbVertex
100
AcDb2dVertex
8
Layer01
10
65.933994
20
55.846455
30
0.0
0
VERTEX
100
AcDbVertex
100
AcDb2dVertex
8
Layer01
10
65.526993
20
55.778217
30
0.0
0
VERTEX
100
AcDbVertex
100
AcDb2dVertex
8
Layer01
10
64.712998
20
55.647222
30
0.0
0
VERTEX
100
AcDbVertex
100
AcDb2dVertex
8
Layer01
10
64.305997
20
55.583908
30
0.0
0
VERTEX
100
AcDbVertex
100
AcDb2dVertex
8
Layer01
10
63.898996
20
55.51975
30
0.0
0
VERTEX
100
AcDbVertex
100
AcDb2dVertex
8
Layer01
10
63.491995
20
55.454228
30
0.0
0
VERTEX
100
AcDbVertex
100
AcDb2dVertex
8
Layer01
10
63.084994
20
55.386817
30
0.0
0
VERTEX
100
AcDbVertex
100
AcDb2dVertex
8
Layer01
10
62.677994
20
55.316997
30
0.0
0
VERTEX
100
AcDbVertex
100
AcDb2dVertex
8
Layer01
10
62.270993
20
55.244271
30
0.0
0
VERTEX
100
AcDbVertex
100
AcDb2dVertex
8
Layer01
10
61.863992
20
55.168169
30
0.0
0
VERTEX
100
AcDbVertex
100
AcDb2dVertex
8
Layer01
10
61.456991
20
55.088263
30
0.0
0
VERTEX
100
AcDbVertex
100
AcDb2dVertex
8
Layer01
10
60.643002
20
54.908248
30
0.0
0
VERTEX
100
AcDbVertex
100
AcDb2dVertex
8
Layer01
10
60.236001
20
54.808139
30
0.0
0
VERTEX
100
AcDbVertex
100
AcDb2dVertex
8
Layer01
10
59.829
20
54.704228
30
0.0
0
VERTEX
100
AcDbVertex
100
AcDb2dVertex
8
Layer01
10
59.421999
20
54.596945
30
0.0
0
VERTEX
100
AcDbVertex
100
AcDb2dVertex
8
Layer01
10
59.014998
20
54.486761
30
0.0
0
VERTEX
100
AcDbVertex
100
AcDb2dVertex
8
Layer01
10
58.607997
20
54.374175
30
0.0
0
VERTEX
100
AcDbVertex
100
AcDb2dVertex
8
Layer01
10
58.200997
20
54.259707
30
0.0
0
VERTEX
100
AcDbVertex
100
AcDb2dVertex
8
Layer01
10
57.793996
20
54.143883
30
0.0
0
VERTEX
100
AcDbVertex
100
AcDb2dVertex
8
Layer01
10
57.386995
20
54.027225
30
0.0
0
VERTEX
100
AcDbVertex
100
AcDb2dVertex
8
Layer01
10
56.572999
20
53.798316
30
0.0
0
VERTEX
100
AcDbVertex
100
AcDb2dVertex
8
Layer01
10
56.165999
20
53.68662
30
0.0
0
VERTEX
100
AcDbVertex
100
AcDb2dVertex
8
Layer01
10
55.758998
20
53.575198
30
0.0
0
VERTEX
100
AcDbVertex
100
AcDb2dVertex
8
Layer01
10
55.351997
20
53.464062
30
0.0
0
VERTEX
100
AcDbVertex
100
AcDb2dVertex
8
Layer01
10
54.944996
20
53.353199
30
0.0
0
VERTEX
100
AcDbVertex
100
AcDb2dVertex
8
Layer01
10
54.537995
20
53.242571
30
0.0
0
VERTEX
100
AcDbVertex
100
AcDb2dVertex
8
Layer01
10
54.130994
20
53.132125
30
0.0
0
VERTEX
100
AcDbVertex
100
AcDb2dVertex
8
Layer01
10
53.723994
20
53.021791
30
0.0
0
VERTEX
100
AcDbVertex
100
AcDb2dVertex
8
Layer01
10
53.316993
20
52.911487
30
0.0
0
VERTEX
100
AcDbVertex
100
AcDb2dVertex
8
Layer01
10
52.502997
20
52.689391
30
0.0
0
VERTEX
100
AcDbVertex
100
AcDb2dVertex
8
Layer01
10
52.095996
20
52.577503
30
0.0
0
VERTEX
100
AcDbVertex
100
AcDb2dVertex
8
Layer01
10
51.688996
20
52.465465
30
0.0
0
VERTEX
100
AcDbVertex
100
AcDb2dVertex
8
Layer01
10
51.281995
20
52.353273
30
0.0
0
VERTEX
100
AcDbVertex
100
AcDb2dVertex
8
Layer01
10
50.874994
20
52.240929
30
0.0
0
VERTEX
100
AcDbVertex
100
AcDb2dVertex
8
Layer01
10
50.467993
20
52.12843
30
0.0
0
VERTEX
100
AcDbVertex
100
AcDb2dVertex
8
Layer01
10
50.060992
20
52.015776
30
0.0
0
VERTEX
100
AcDbVertex
100
AcDb2dVertex
8
Layer01
10
49.653991
20
51.902966
30
0.0
0
VERTEX
100
AcDbVertex
100
AcDb2dVertex
8
Layer01
10
49.246991
20
51.789997
30
0.0
0
VERTEX
100
AcDbVertex
100
AcDb2dVertex
8
Layer01
10
48.432998
20
51.562463
30
0.0
0
VERTEX
100
AcDbVertex
100
AcDb2dVertex
8
Layer01
10
48.025997
20
51.447975
30
0.0
0
VERTEX
100
AcDbVertex
100
AcDb2dVertex
8
Layer01
10
47.618996
20
51.333488
30
0.0
0
VERTEX
100
AcDbVertex
100
AcDb2dVertex
8
Layer01
10
47.211996
20
51.219072
30
0.0
0
VERTEX
100
AcDbVertex
100
AcDb2dVertex
8
Layer01
10
46.804995
20
51.10479
30
0.0
0
VERTEX
100
AcDbVertex
100
AcDb2dVertex
8
Layer01
10
46.397994
20
50.990688
30
0.0
0
VERTEX
100
AcDbVertex
100
AcDb2dVertex
8
Layer01
10
45.990993
20
50.876798
30
0.0
0
VERTEX
100
AcDbVertex
100
AcDb2dVertex
8
Layer01
10
45.583992
20
50.763129
30
0.0
0
VERTEX
100
AcDbVertex
100
AcDb2dVertex
8
Layer01
10
45.176991
20
50.649668
30
0.0
0
VERTEX
100
AcDbVertex
100
AcDb2dVertex
8
Layer01
10
44.362999
20
50.427641
30
0.0
0
VERTEX
100
AcDbVertex
100
AcDb2dVertex
8
Layer01
10
43.955998
20
50.318558
30
0.0
0
VERTEX
100
AcDbVertex
100
AcDb2dVertex
8
Layer01
10
43.548997
20
50.208662
30
0.0
0
VERTEX
100
AcDbVertex
100
AcDb2dVertex
8
Layer01
10
43.141996
20
50.097471
30
0.0
0
VERTEX
100
AcDbVertex
100
AcDb2dVertex
8
Layer01
10
42.734996
20
49.984504
30
0.0
0
VERTEX
100
AcDbVertex
100
AcDb2dVertex
8
Layer01
10
42.327995
20
49.869283
30
0.0
0
VERTEX
100
AcDbVertex
100
AcDb2dVertex
8
Layer01
10
41.920994
20
49.751348
30
0.0
0
VERTEX
100
AcDbVertex
100
AcDb2dVertex
8
Layer01
10
41.513993
20
49.630264
30
0.0
0
VERTEX
100
AcDbVertex
100
AcDb2dVertex
8
Layer01
10
41.106992
20
49.505637
30
0.0
0
VERTEX
100
AcDbVertex
100
AcDb2dVertex
8
Layer01
10
40.293
20
49.236943
30
0.0
0
VERTEX
100
AcDbVertex
100
AcDb2dVertex
8
Layer01
10
39.885999
20
49.092919
30
0.0
0
VERTEX
100
AcDbVertex
100
AcDb2dVertex
8
Layer01
10
39.478998
20
48.945438
30
0.0
0
VERTEX
100
AcDbVertex
100
AcDb2dVertex
8
Layer01
10
39.071997
20
48.794933
30
0.0
0
VERTEX
100
AcDbVertex
100
AcDb2dVertex
8
Layer01
10
38.664996
20
48.64187
30
0.0
0
VERTEX
100
AcDbVertex
100
AcDb2dVertex
8
Layer01
10
38.257996
20
48.48673
30
0.0
0
VERTEX
100
AcDbVertex
100
AcDb2dVertex
8
Layer01
10
37.850995
20
48.329999
30
0.0
0
VERTEX
100
AcDbVertex
100
AcDb2dVertex
8
Layer01
10
37.443994
20
48.172156
30
0.0
0
VERTEX
100
AcDbVertex
100
AcDb2dVertex
8
Layer01
10
37.036993
20
48.013659
30
0.0
0
VERTEX
100
AcDbVertex
100
AcDb2dVertex
8
Layer01
10
36.223001
20
47.703174
30
0.0
0
VERTEX
100
AcDbVertex
100
AcDb2dVertex
8
Layer01
10
35.816
20
47.551374
30
0.0
0
VERTEX
100
AcDbVertex
100
AcDb2dVertex
8
Layer01
10
35.408999
20
47.3993
30
0.0
0
VERTEX
100
AcDbVertex
100
AcDb2dVertex
8
Layer01
10
35.001998
20
47.24667
30
0.0
0
VERTEX
100
AcDbVertex
100
AcDb2dVertex
8
Layer01
10
34.594997
20
47.093173
30
0.0
0
VERTEX
100
AcDbVertex
100
AcDb2dVertex
8
Layer01
10
34.187997
20
46.938469
30
0.0
0
VERTEX
100
AcDbVertex
100
AcDb2dVertex
8
Layer01
10
33.780996
20
46.782203
30
0.0
0
VERTEX
100
AcDbVertex
100
AcDb2dVertex
8
Layer01
10
33.373995
20
46.624012
30
0.0
0
VERTEX
100
AcDbVertex
100
AcDb2dVertex
8
Layer01
10
32.966994
20
46.463529
30
0.0
0
VERTEX
100
AcDbVertex
100
AcDb2dVertex
8
Layer01
10
32.152998
20
46.13159
30
0.0
0
VERTEX
100
AcDbVertex
100
AcDb2dVertex
8
Layer01
10
31.745998
20
45.959674
30
0.0
0
VERTEX
100
AcDbVertex
100
AcDb2dVertex
8
Layer01
10
31.338997
20
45.784561
30
0.0
0
VERTEX
100
AcDbVertex
100
AcDb2dVertex
8
Layer01
10
30.931996
20
45.606183
30
0.0
0
VERTEX
100
AcDbVertex
100
AcDb2dVertex
8
Layer01
10
30.524995
20
45.424495
30
0.0
0
VERTEX
100
AcDbVertex
100
AcDb2dVertex
8
Layer01
10
30.117994
20
45.239478
30
0.0
0
VERTEX
100
AcDbVertex
100
AcDb2dVertex
8
Layer01
10
29.710993
20
45.051135
30
0.0
0
VERTEX
100
AcDbVertex
100
AcDb2dVertex
8
Layer01
10
29.303993
20
44.859492
30
0.0
0
VERTEX
100
AcDbVertex
100
AcDb2dVertex
8
Layer01
10
28.896992
20
44.664601
30
0.0
0
VERTEX
100
AcDbVertex
100
AcDb2dVertex
8
Layer01
10
28.082999
20
44.261555
30
0.0
0
VERTEX
100
AcDbVertex
100
AcDb2dVertex
8
Layer01
10
27.675998
20
44.053905
30
0.0
0
VERTEX
100
AcDbVertex
100
AcDb2dVertex
8
Layer01
10
27.268998
20
43.844014
30
0.0
0
VERTEX
100
AcDbVertex
100
AcDb2dVertex
8
Layer01
10
26.861997
20
43.632303
30
0.0
0
VERTEX
100
AcDbVertex
100
AcDb2dVertex
8
Layer01
10
26.454996
20
43.419186
30
0.0
0
VERTEX
100
AcDbVertex
100
AcDb2dVertex
8
Layer01
10
26.047995
20
43.205051
30
0.0
0
VERTEX
100
AcDbVertex
100
AcDb2dVertex
8
Layer01
10
25.640994
20
42.990252
30
0.0
0
VERTEX
100
AcDbVertex
100
AcDb2dVertex
8
Layer01
10
25.233995
20
42.775097
30
0.0
0
VERTEX
100
AcDbVertex
100
AcDb2dVertex
8
Layer01
10
24.826996
20
42.559835
30
0.0
0
VERTEX
100
AcDbVertex
100
AcDb2dVertex
8
Layer01
10
24.013
20
42.1433
30
0.0
0
VERTEX
100
AcDbVertex
100
AcDb2dVertex
8
Layer01
10
23.606001
20
41.941101
30
0.0
0
VERTEX
100
AcDbVertex
100
AcDb2dVertex
8
Layer01
10
23.199002
20
41.73696
30
0.0
0
VERTEX
100
AcDbVertex
100
AcDb2dVertex
8
Layer01
10
22.792002
20
41.529757
30
0.0
0
VERTEX
100
AcDbVertex
100
AcDb2dVertex
8
Layer01
10
22.385003
20
41.318367
30
0.0
0
VERTEX
100
AcDbVertex
100
AcDb2dVertex
8
Layer01
10
21.978004
20
41.101693
30
0.0
0
VERTEX
100
AcDbVertex
100
AcDb2dVertex
8
Layer01
10
21.571004
20
40.878691
30
0.0
0
VERTEX
100
AcDbVertex
100
AcDb2dVertex
8
Layer01
10
21.164005
20
40.648405
30
0.0
0
VERTEX
100
AcDbVertex
100
AcDb2dVertex
8
Layer01
10
20.757006
20
40.409995
30
0.0
0
VERTEX
100
AcDbVertex
100
AcDb2dVertex
8
Layer01
10
20.350006
20
40.162764
30
0.0
0
VERTEX
100
AcDbVertex
100
AcDb2dVertex
8
Layer01
10
19.943001
20
39.890154
30
0.0
0
VERTEX
100
AcDbVertex
100
AcDb2dVertex
8
Layer01
10
19.536002
20
39.609711
30
0.0
0
VERTEX
100
AcDbVertex
100
AcDb2dVertex
8
Layer01
10
19.129002
20
39.322491
30
0.0
0
VERTEX
100
AcDbVertex
100
AcDb2dVertex
8
Layer01
10
18.722003
20
39.029622
30
0.0
0
VERTEX
100
AcDbVertex
100
AcDb2dVertex
8
Layer01
10
18.315004
20
38.73226
30
0.0
0
VERTEX
100
AcDbVertex
100
AcDb2dVertex
8
Layer01
10
17.908004
20
38.431556
30
0.0
0
VERTEX
100
AcDbVertex
100
AcDb2dVertex
8
Layer01
10
17.501005
20
38.128622
30
0.0
0
VERTEX
100
AcDbVertex
100
AcDb2dVertex
8
Layer01
10
17.094006
20
37.824486
30
0.0
0
VERTEX
100
AcDbVertex
100
AcDb2dVertex
8
Layer01
10
16.687007
20
37.520066
30
0.0
0
VERTEX
100
AcDbVertex
100
AcDb2dVertex
8
Layer01
10
16.280007
20
37.216126
30
0.0
0
VERTEX
100
AcDbVertex
100
AcDb2dVertex
8
Layer01
10
16.076499
20
37.066518
30
0.0
0
VERTEX
100
AcDbVertex
100
AcDb2dVertex
8
Layer01
10
15.872999
20
36.916851
30
0.0
0
VERTEX
100
AcDbVertex
100
AcDb2dVertex
8
Layer01
10
15.669498
20
36.767108
30
0.0
0
VERTEX
100
AcDbVertex
100
AcDb2dVertex
8
Layer01
10
15.465998
20
36.617273
30
0.0
0
VERTEX
100
AcDbVertex
100
AcDb2dVertex
8
Layer01
10
15.262498
20
36.467331
30
0.0
0
VERTEX
100
AcDbVertex
100
AcDb2dVertex
8
Layer01
10
15.058997
20
36.317261
30
0.0
0
VERTEX
100
AcDbVertex
100
AcDb2dVertex
8
Layer01
10
14.855497
20
36.167042
30
0.0
0
VERTEX
100
AcDbVertex
100
AcDb2dVertex
8
Layer01
10
14.651996
20
36.016652
30
0.0
0
VERTEX
100
AcDbVertex
100
AcDb2dVertex
8
Layer01
10
14.448496
20
35.866067
30
0.0
0
VERTEX
100
AcDbVertex
100
AcDb2dVertex
8
Layer01
10
14.0415
20
35.561275
30
0.0
0
VERTEX
100
AcDbVertex
100
AcDb2dVertex
8
Layer01
10
13.837999
20
35.407325
30
0.0
0
VERTEX
100
AcDbVertex
100
AcDb2dVertex
8
Layer01
10
13.634499
20
35.25358
30
0.0
0
VERTEX
100
AcDbVertex
100
AcDb2dVertex
8
Layer01
10
13.430998
20
35.100186
30
0.0
0
VERTEX
100
AcDbVertex
100
AcDb2dVertex
8
Layer01
10
13.227498
20
34.947256
30
0.0
0
VERTEX
100
AcDbVertex
100
AcDb2dVertex
8
Layer01
10
13.023998
20
34.794872
30
0.0
0
VERTEX
100
AcDbVertex
100
AcDb2dVertex
8
Layer01
10
12.820497
20
34.643076
30
0.0
0
VERTEX
100
AcDbVertex
100
AcDb2dVertex
8
Layer01
10
12.616998
20
34.491865
30
0.0
0
VERTEX
100
AcDbVertex
100
AcDb2dVertex
8
Layer01
10
12.413498
20
34.341185
30
0.0
0
VERTEX
100
AcDbVertex
100
AcDb2dVertex
8
Layer01
10
12.0065
20
34.049335
30
0.0
0
VERTEX
100
AcDbVertex
100
AcDb2dVertex
8
Layer01
10
11.803
20
33.907123
30
0.0
0
VERTEX
100
AcDbVertex
100
AcDb2dVertex
8
Layer01
10
11.599501
20
33.763375
30
0.0
0
VERTEX
100
AcDbVertex
100
AcDb2dVertex
8
Layer01
10
11.396001
20
33.617149
30
0.0
0
VERTEX
100
AcDbVertex
100
AcDb2dVertex
8
Layer01
10
11.192501
20
33.467492
30
0.0
0
VERTEX
100
AcDbVertex
100
AcDb2dVertex
8
Layer01
10
10.989002
20
33.313467
30
0.0
0
VERTEX
100
AcDbVertex
100
AcDb2dVertex
8
Layer01
10
10.785502
20
33.154167
30
0.0
0
VERTEX
100
AcDbVertex
100
AcDb2dVertex
8
Layer01
10
10.582002
20
32.988741
30
0.0
0
VERTEX
100
AcDbVertex
100
AcDb2dVertex
8
Layer01
10
10.378503
20
32.816407
30
0.0
0
VERTEX
100
AcDbVertex
100
AcDb2dVertex
8
Layer01
10
10.175003
20
32.636478
30
0.0
0
VERTEX
100
AcDbVertex
100
AcDb2dVertex
8
Layer01
10
9.9715
20
32.432609
30
0.0
0
VERTEX
100
AcDbVertex
100
AcDb2dVertex
8
Layer01
10
9.768001
20
32.221316
30
0.0
0
VERTEX
100
AcDbVertex
100
AcDb2dVertex
8
Layer01
10
9.564501
20
32.003447
30
0.0
0
VERTEX
100
AcDbVertex
100
AcDb2dVertex
8
Layer01
10
9.361002
20
31.779926
30
0.0
0
VERTEX
100
AcDbVertex
100
AcDb2dVertex
8
Layer01
10
9.157502
20
31.551728
30
0.0
0
VERTEX
100
AcDbVertex
100
AcDb2dVertex
8
Layer01
10
8.954002
20
31.319847
30
0.0
0
VERTEX
100
AcDbVertex
100
AcDb2dVertex
8
Layer01
10
8.750503
20
31.085272
30
0.0
0
VERTEX
100
AcDbVertex
100
AcDb2dVertex
8
Layer01
10
8.547003
20
30.848957
30
0.0
0
VERTEX
100
AcDbVertex
100
AcDb2dVertex
8
Layer01
10
8.343503
20
30.611792
30
0.0
0
VERTEX
100
AcDbVertex
100
AcDb2dVertex
8
Layer01
10
8.140004
20
30.374577
30
0.0
0
VERTEX
100
AcDbVertex
100
AcDb2dVertex
8
Layer01
10
7.9365
20
30.154578
30
0.0
0
VERTEX
100
AcDbVertex
100
AcDb2dVertex
8
Layer01
10
7.733001
20
29.934502
30
0.0
0
VERTEX
100
AcDbVertex
100
AcDb2dVertex
8
Layer01
10
7.529501
20
29.713507
30
0.0
0
VERTEX
100
AcDbVertex
100
AcDb2dVertex
8
Layer01
10
7.326001
20
29.490655
30
0.0
0
VERTEX
100
AcDbVertex
100
AcDb2dVertex
8
Layer01
10
7.122502
20
29.264929
30
0.0
0
VERTEX
100
AcDbVertex
100
AcDb2dVertex
8
Layer01
10
6.919002
20
29.035253
30
0.0
0
VERTEX
100
AcDbVertex
100
AcDb2dVertex
8
Layer01
10
6.715502
20
28.800519
30
0.0
0
VERTEX
100
AcDbVertex
100
AcDb2dVertex
8
Layer01
10
6.512003
20
28.559606
30
0.0
0
VERTEX
100
AcDbVertex
100
AcDb2dVertex
8
Layer01
10
6.308503
20
28.311405
30
0.0
0
VERTEX
100
AcDbVertex
100
AcDb2dVertex
8
Layer01
10
6.105003
20
28.054839
30
0.0
0
VERTEX
100
AcDbVertex
100
AcDb2dVertex
8
Layer01
10
6.104999
20
28.054834
30
0.0
0
VERTEX
100
AcDbVertex
100
AcDb2dVertex
8
Layer01
10
5.860624
20
27.735445
30
0.0
0
VERTEX
100
AcDbVertex
100
AcDb2dVertex
8
Layer01
10
5.626232
20
27.416056
30
0.0
0
VERTEX
100
AcDbVertex
100
AcDb2dVertex
8
Layer01
10
5.401731
20
27.096667
30
0.0
0
VERTEX
100
AcDbVertex
100
AcDb2dVertex
8
Layer01
10
5.186869
20
26.777278
30
0.0
0
VERTEX
100
AcDbVertex
100
AcDb2dVertex
8
Layer01
10
4.981248
20
26.457889
30
0.0
0
VERTEX
100
AcDbVertex
100
AcDb2dVertex
8
Layer01
10
4.784345
20
26.1385
30
0.0
0
VERTEX
100
AcDbVertex
100
AcDb2dVertex
8
Layer01
10
4.595527
20
25.819111
30
0.0
0
VERTEX
100
AcDbVertex
100
AcDb2dVertex
8
Layer01
10
4.414071
20
25.499722
30
0.0
0
VERTEX
100
AcDbVertex
100
AcDb2dVertex
8
Layer01
10
4.23918
20
25.180332
30
0.0
0
VERTEX
100
AcDbVertex
100
AcDb2dVertex
8
Layer01
10
4.07
20
24.860943
30
0.0
0
VERTEX
100
AcDbVertex
100
AcDb2dVertex
8
Layer01
10
4.07
20
24.860943
30
0.0
0
VERTEX
100
AcDbVertex
100
AcDb2dVertex
8
Layer01
10
3.861032
20
24.450605
30
0.0
0
VERTEX
100
AcDbVertex
100
AcDb2dVertex
8
Layer01
10
3.658102
20
24.040267
30
0.0
0
VERTEX
100
AcDbVertex
100
AcDb2dVertex
8
Layer01
10
3.459137
20
23.629929
30
0.0
0
VERTEX
100
AcDbVertex
100
AcDb2dVertex
8
Layer01
10
3.262134
20
23.219591
30
0.0
0
VERTEX
100
AcDbVertex
100
AcDb2dVertex
8
Layer01
10
3.065225
20
22.809253
30
0.0
0
VERTEX
100
AcDbVertex
100
AcDb2dVertex
8
Layer01
10
2.866747
20
22.398915
30
0.0
0
VERTEX
100
AcDbVertex
100
AcDb2dVertex
8
Layer01
10
2.665314
20
21.988578
30
0.0
0
VERTEX
100
AcDbVertex
100
AcDb2dVertex
8
Layer01
10
2.459884
20
21.57824
30
0.0
0
VERTEX
100
AcDbVertex
100
AcDb2dVertex
8
Layer01
10
2.249827
20
21.167902
30
0.0
0
VERTEX
100
AcDbVertex
100
AcDb2dVertex
8
Layer01
10
2.035
20
20.75757
30
0.0
0
VERTEX
100
AcDbVertex
100
AcDb2dVertex
8
Layer01
10
1.762669
20
20.299528
30
0.0
0
VERTEX
100
AcDbVertex
100
AcDb2dVertex
8
Layer01
10
1.490121
20
19.841486
30
0.0
0
VERTEX
100
AcDbVertex
100
AcDb2dVertex
8
Layer01
10
1.222328
20
19.383444
30
0.0
0
VERTEX
100
AcDbVertex
100
AcDb2dVertex
8
Layer01
10
0.964861
20
18.925402
30
0.0
0
VERTEX
100
AcDbVertex
100
AcDb2dVertex
8
Layer01
10
0.723794
20
18.46736
30
0.0
0
VERTEX
100
AcDbVertex
100
AcDb2dVertex
8
Layer01
10
0.505608
20
18.009318
30
0.0
0
VERTEX
100
AcDbVertex
100
AcDb2dVertex
8
Layer01
10
0.317089
20
17.551276
30
0.0
0
VERTEX
100
AcDbVertex
100
AcDb2dVertex
8
Layer01
10
0.165237
20
17.093234
30
0.0
0
VERTEX
100
AcDbVertex
100
AcDb2dVertex
8
Layer01
10
0.057164
20
16.635192
30
0.0
0
VERTEX
100
AcDbVertex
100
AcDb2dVertex
8
Layer01
10
0.0
20
16.177152
30
0.0
0
VERTEX
100
AcDbVertex
100
AcDb2dVertex
8
Layer01
10
-0.003107
20
16.132507
30
0.0
0
VERTEX
100
AcDbVertex
100
AcDb2dVertex
8
Layer01
10
-0.005542
20
16.087863
30
0.0
0
VERTEX
100
AcDbVertex
100
AcDb2dVertex
8
Layer01
10
-0.007298
20
16.043219
30
0.0
0
VERTEX
100
AcDbVertex
100
AcDb2dVertex
8
Layer01
10
-0.008368
20
15.998574
30
0.0
0
VERTEX
100
AcDbVertex
100
AcDb2dVertex
8
Layer01
10
-0.008745
20
15.95393
30
0.0
0
VERTEX
100
AcDbVertex
100
AcDb2dVertex
8
Layer01
10
-0.008422
20
15.909286
30
0.0
0
VERTEX
100
AcDbVertex
100
AcDb2dVertex
8
Layer01
10
-0.007392
20
15.864642
30
0.0
0
VERTEX
100
AcDbVertex
100
AcDb2dVertex
8
Layer01
10
-0.005649
20
15.819997
30
0.0
0
VERTEX
100
AcDbVertex
100
AcDb2dVertex
8
Layer01
10
-0.003187
20
15.775353
30
0.0
0
VERTEX
100
AcDbVertex
100
AcDb2dVertex
8
Layer01
10
0.0
20
15.730713
30
0.0
0
VERTEX
100
AcDbVertex
100
AcDb2dVertex
8
Layer01
10
0.060294
20
15.418162
30
0.0
0
VERTEX
100
AcDbVertex
100
AcDb2dVertex
8
Layer01
10
0.166703
20
15.105611
30
0.0
0
VERTEX
100
AcDbVertex
100
AcDb2dVertex
8
Layer01
10
0.314912
20
14.79306
30
0.0
0
VERTEX
100
AcDbVertex
100
AcDb2dVertex
8
Layer01
10
0.499741
20
14.480509
30
0.0
0
VERTEX
100
AcDbVertex
100
AcDb2dVertex
8
Layer01
10
0.715372
20
14.167958
30
0.0
0
VERTEX
100
AcDbVertex
100
AcDb2dVertex
8
Layer01
10
0.955569
20
13.855407
30
0.0
0
VERTEX
100
AcDbVertex
100
AcDb2dVertex
8
Layer01
10
1.213898
20
13.542856
30
0.0
0
VERTEX
100
AcDbVertex
100
AcDb2dVertex
8
Layer01
10
1.483946
20
13.230304
30
0.0
0
VERTEX
100
AcDbVertex
100
AcDb2dVertex
8
Layer01
10
1.759546
20
12.917753
30
0.0
0
VERTEX
100
AcDbVertex
100
AcDb2dVertex
8
Layer01
10
2.034996
20
12.605202
30
0.0
0
VERTEX
100
AcDbVertex
100
AcDb2dVertex
8
Layer01
10
2.035
20
12.605197
30
0.0
0
VERTEX
100
AcDbVertex
100
AcDb2dVertex
8
Layer01
10
2.259432
20
12.325503
30
0.0
0
VERTEX
100
AcDbVertex
100
AcDb2dVertex
8
Layer01
10
2.477969
20
12.045808
30
0.0
0
VERTEX
100
AcDbVertex
100
AcDb2dVertex
8
Layer01
10
2.68978
20
11.766114
30
0.0
0
VERTEX
100
AcDbVertex
100
AcDb2dVertex
8
Layer01
10
2.894733
20
11.486419
30
0.0
0
VERTEX
100
AcDbVertex
100
AcDb2dVertex
8
Layer01
10
3.093432
20
11.206725
30
0.0
0
VERTEX
100
AcDbVertex
100
AcDb2dVertex
8
Layer01
10
3.287247
20
10.92703
30
0.0
0
VERTEX
100
AcDbVertex
100
AcDb2dVertex
8
Layer01
10
3.478355
20
10.647336
30
0.0
0
VERTEX
100
AcDbVertex
100
AcDb2dVertex
8
Layer01
10
3.66977
20
10.367642
30
0.0
0
VERTEX
100
AcDbVertex
100
AcDb2dVertex
8
Layer01
10
3.865385
20
10.087947
30
0.0
0
VERTEX
100
AcDbVertex
100
AcDb2dVertex
8
Layer01
10
4.07
20
9.808253
30
0.0
0
VERTEX
100
AcDbVertex
100
AcDb2dVertex
8
Layer01
10
4.07
20
9.808252
30
0.0
0
VERTEX
100
AcDbVertex
100
AcDb2dVertex
8
Layer01
10
4.159234
20
9.62688
30
0.0
0
VERTEX
100
AcDbVertex
100
AcDb2dVertex
8
Layer01
10
4.266473
20
9.445509
30
0.0
0
VERTEX
100
AcDbVertex
100
AcDb2dVertex
8
Layer01
10
4.395366
20
9.264137
30
0.0
0
VERTEX
100
AcDbVertex
100
AcDb2dVertex
8
Layer01
10
4.549162
20
9.082766
30
0.0
0
VERTEX
100
AcDbVertex
100
AcDb2dVertex
8
Layer01
10
4.730622
20
8.901394
30
0.0
0
VERTEX
100
AcDbVertex
100
AcDb2dVertex
8
Layer01
10
4.94194
20
8.720023
30
0.0
0
VERTEX
100
AcDbVertex
100
AcDb2dVertex
8
Layer01
10
5.184654
20
8.538651
30
0.0
0
VERTEX
100
AcDbVertex
100
AcDb2dVertex
8
Layer01
10
5.459567
20
8.357279
30
0.0
0
VERTEX
100
AcDbVertex
100
AcDb2dVertex
8
Layer01
10
5.766659
20
8.175908
30
0.0
0
VERTEX
100
AcDbVertex
100
AcDb2dVertex
8
Layer01
10
6.104999
20
7.994539
30
0.0
0
VERTEX
100
AcDbVertex
100
AcDb2dVertex
8
Layer01
10
6.302746
20
7.904632
30
0.0
0
VERTEX
100
AcDbVertex
100
AcDb2dVertex
8
Layer01
10
6.503551
20
7.814726
30
0.0
0
VERTEX
100
AcDbVertex
100
AcDb2dVertex
8
Layer01
10
6.706635
20
7.724819
30
0.0
0
VERTEX
100
AcDbVertex
100
AcDb2dVertex
8
Layer01
10
6.91127
20
7.634913
30
0.0
0
VERTEX
100
AcDbVertex
100
AcDb2dVertex
8
Layer01
10
7.116791
20
7.545006
30
0.0
0
VERTEX
100
AcDbVertex
100
AcDb2dVertex
8
Layer01
10
7.322605
20
7.4551
30
0.0
0
VERTEX
100
AcDbVertex
100
AcDb2dVertex
8
Layer01
10
7.528202
20
7.365193
30
0.0
0
VERTEX
100
AcDbVertex
100
AcDb2dVertex
8
Layer01
10
7.733162
20
7.275287
30
0.0
0
VERTEX
100
AcDbVertex
100
AcDb2dVertex
8
Layer01
10
7.937165
20
7.18538
30
0.0
0
VERTEX
100
AcDbVertex
100
AcDb2dVertex
8
Layer01
10
8.343499
20
7.005565
30
0.0
0
VERTEX
100
AcDbVertex
100
AcDb2dVertex
8
Layer01
10
8.546999
20
6.914707
30
0.0
0
VERTEX
100
AcDbVertex
100
AcDb2dVertex
8
Layer01
10
8.750499
20
6.823075
30
0.0
0
VERTEX
100
AcDbVertex
100
AcDb2dVertex
8
Layer01
10
8.953998
20
6.730925
30
0.0
0
VERTEX
100
AcDbVertex
100
AcDb2dVertex
8
Layer01
10
9.157498
20
6.638584
30
0.0
0
VERTEX
100
AcDbVertex
100
AcDb2dVertex
8
Layer01
10
9.360998
20
6.546432
30
0.0
0
VERTEX
100
AcDbVertex
100
AcDb2dVertex
8
Layer01
10
9.564497
20
6.45489
30
0.0
0
VERTEX
100
AcDbVertex
100
AcDb2dVertex
8
Layer01
10
9.767997
20
6.364401
30
0.0
0
VERTEX
100
AcDbVertex
100
AcDb2dVertex
8
Layer01
10
9.971497
20
6.27542
30
0.0
0
VERTEX
100
AcDbVertex
100
AcDb2dVertex
8
Layer01
10
10.174996
20
6.188396
30
0.0
0
VERTEX
100
AcDbVertex
100
AcDb2dVertex
8
Layer01
10
10.3785
20
6.110143
30
0.0
0
VERTEX
100
AcDbVertex
100
AcDb2dVertex
8
Layer01
10
10.581999
20
6.034191
30
0.0
0
VERTEX
100
AcDbVertex
100
AcDb2dVertex
8
Layer01
10
10.785499
20
5.960418
30
0.0
0
VERTEX
100
AcDbVertex
100
AcDb2dVertex
8
Layer01
10
10.988999
20
5.888682
30
0.0
0
VERTEX
100
AcDbVertex
100
AcDb2dVertex
8
Layer01
10
11.192498
20
5.818816
30
0.0
0
VERTEX
100
AcDbVertex
100
AcDb2dVertex
8
Layer01
10
11.395998
20
5.750638
30
0.0
0
VERTEX
100
AcDbVertex
100
AcDb2dVertex
8
Layer01
10
11.599498
20
5.683952
30
0.0
0
VERTEX
100
AcDbVertex
100
AcDb2dVertex
8
Layer01
10
11.802997
20
5.618555
30
0.0
0
VERTEX
100
AcDbVertex
100
AcDb2dVertex
8
Layer01
10
12.006497
20
5.554239
30
0.0
0
VERTEX
100
AcDbVertex
100
AcDb2dVertex
8
Layer01
10
12.209997
20
5.490797
30
0.0
0
VERTEX
100
AcDbVertex
100
AcDb2dVertex
8
Layer01
10
12.413499
20
5.426326
30
0.0
0
VERTEX
100
AcDbVertex
100
AcDb2dVertex
8
Layer01
10
12.616999
20
5.362465
30
0.0
0
VERTEX
100
AcDbVertex
100
AcDb2dVertex
8
Layer01
10
12.820499
20
5.299157
30
0.0
0
VERTEX
100
AcDbVertex
100
AcDb2dVertex
8
Layer01
10
13.023999
20
5.236357
30
0.0
0
VERTEX
100
AcDbVertex
100
AcDb2dVertex
8
Layer01
10
13.2275
20
5.174025
30
0.0
0
VERTEX
100
AcDbVertex
100
AcDb2dVertex
8
Layer01
10
13.431
20
5.11213
30
0.0
0
VERTEX
100
AcDbVertex
100
AcDb2dVertex
8
Layer01
10
13.6345
20
5.050647
30
0.0
0
VERTEX
100
AcDbVertex
100
AcDb2dVertex
8
Layer01
10
13.838001
20
4.989556
30
0.0
0
VERTEX
100
AcDbVertex
100
AcDb2dVertex
8
Layer01
10
14.041501
20
4.928841
30
0.0
0
VERTEX
100
AcDbVertex
100
AcDb2dVertex
8
Layer01
10
14.4485
20
4.80903
30
0.0
0
VERTEX
100
AcDbVertex
100
AcDb2dVertex
8
Layer01
10
14.652001
20
4.749902
30
0.0
0
VERTEX
100
AcDbVertex
100
AcDb2dVertex
8
Layer01
10
14.855501
20
4.69107
30
0.0
0
VERTEX
100
AcDbVertex
100
AcDb2dVertex
8
Layer01
10
15.059002
20
4.632494
30
0.0
0
VERTEX
100
AcDbVertex
100
AcDb2dVertex
8
Layer01
10
15.262502
20
4.574138
30
0.0
0
VERTEX
100
AcDbVertex
100
AcDb2dVertex
8
Layer01
10
15.466003
20
4.515969
30
0.0
0
VERTEX
100
AcDbVertex
100
AcDb2dVertex
8
Layer01
10
15.669503
20
4.457954
30
0.0
0
VERTEX
100
AcDbVertex
100
AcDb2dVertex
8
Layer01
10
15.873003
20
4.400065
30
0.0
0
VERTEX
100
AcDbVertex
100
AcDb2dVertex
8
Layer01
10
16.076504
20
4.342277
30
0.0
0
VERTEX
100
AcDbVertex
100
AcDb2dVertex
8
Layer01
10
16.686999
20
4.165207
30
0.0
0
VERTEX
100
AcDbVertex
100
AcDb2dVertex
8
Layer01
10
17.093998
20
4.045426
30
0.0
0
VERTEX
100
AcDbVertex
100
AcDb2dVertex
8
Layer01
10
17.500998
20
3.925813
30
0.0
0
VERTEX
100
AcDbVertex
100
AcDb2dVertex
8
Layer01
10
17.907997
20
3.807091
30
0.0
0
VERTEX
100
AcDbVertex
100
AcDb2dVertex
8
Layer01
10
18.314996
20
3.690092
30
0.0
0
VERTEX
100
AcDbVertex
100
AcDb2dVertex
8
Layer01
10
18.721995
20
3.575725
30
0.0
0
VERTEX
100
AcDbVertex
100
AcDb2dVertex
8
Layer01
10
19.128995
20
3.46494
30
0.0
0
VERTEX
100
AcDbVertex
100
AcDb2dVertex
8
Layer01
10
19.535994
20
3.358701
30
0.0
0
VERTEX
100
AcDbVertex
100
AcDb2dVertex
8
Layer01
10
19.942993
20
3.257948
30
0.0
0
VERTEX
100
AcDbVertex
100
AcDb2dVertex
8
Layer01
10
20.349993
20
3.163572
30
0.0
0
VERTEX
100
AcDbVertex
100
AcDb2dVertex
8
Layer01
10
20.757
20
3.090511
30
0.0
0
VERTEX
100
AcDbVertex
100
AcDb2dVertex
8
Layer01
10
21.163999
20
3.024645
30
0.0
0
VERTEX
100
AcDbVertex
100
AcDb2dVertex
8
Layer01
10
21.570998
20
2.965367
30
0.0
0
VERTEX
100
AcDbVertex
100
AcDb2dVertex
8
Layer01
10
21.977998
20
2.911953
30
0.0
0
VERTEX
100
AcDbVertex
100
AcDb2dVertex
8
Layer01
10
22.384997
20
2.863573
30
0.0
0
VERTEX
100
AcDbVertex
100
AcDb2dVertex
8
Layer01
10
22.791996
20
2.819324
30
0.0
0
VERTEX
100
AcDbVertex
100
AcDb2dVertex
8
Layer01
10
23.198995
20
2.778251
30
0.0
0
VERTEX
100
AcDbVertex
100
AcDb2dVertex
8
Layer01
10
23.605995
20
2.73937
30
0.0
0
VERTEX
100
AcDbVertex
100
AcDb2dVertex
8
Layer01
10
24.012994
20
2.701696
30
0.0
0
VERTEX
100
AcDbVertex
100
AcDb2dVertex
8
Layer01
10
24.419993
20
2.664263
30
0.0
0
VERTEX
100
AcDbVertex
100
AcDb2dVertex
8
Layer01
10
24.826999
20
2.615675
30
0.0
0
VERTEX
100
AcDbVertex
100
AcDb2dVertex
8
Layer01
10
25.233998
20
2.566346
30
0.0
0
VERTEX
100
AcDbVertex
100
AcDb2dVertex
8
Layer01
10
25.640997
20
2.516276
30
0.0
0
VERTEX
100
AcDbVertex
100
AcDb2dVertex
8
Layer01
10
26.047998
20
2.46552
30
0.0
0
VERTEX
100
AcDbVertex
100
AcDb2dVertex
8
Layer01
10
26.454999
20
2.414178
30
0.0
0
VERTEX
100
AcDbVertex
100
AcDb2dVertex
8
Layer01
10
26.862
20
2.362391
30
0.0
0
VERTEX
100
AcDbVertex
100
AcDb2dVertex
8
Layer01
10
27.269001
20
2.310333
30
0.0
0
VERTEX
100
AcDbVertex
100
AcDb2dVertex
8
Layer01
10
27.676002
20
2.2582
30
0.0
0
VERTEX
100
AcDbVertex
100
AcDb2dVertex
8
Layer01
10
28.083002
20
2.206207
30
0.0
0
VERTEX
100
AcDbVertex
100
AcDb2dVertex
8
Layer01
10
28.897001
20
2.105993
30
0.0
0
VERTEX
100
AcDbVertex
100
AcDb2dVertex
8
Layer01
10
29.304002
20
2.058032
30
0.0
0
VERTEX
100
AcDbVertex
100
AcDb2dVertex
8
Layer01
10
29.711003
20
2.010722
30
0.0
0
VERTEX
100
AcDbVertex
100
AcDb2dVertex
8
Layer01
10
30.118003
20
1.964086
30
0.0
0
VERTEX
100
AcDbVertex
100
AcDb2dVertex
8
Layer01
10
30.525004
20
1.918141
30
0.0
0
VERTEX
100
AcDbVertex
100
AcDb2dVertex
8
Layer01
10
30.932005
20
1.872897
30
0.0
0
VERTEX
100
AcDbVertex
100
AcDb2dVertex
8
Layer01
10
31.339006
20
1.82836
30
0.0
0
VERTEX
100
AcDbVertex
100
AcDb2dVertex
8
Layer01
10
31.746007
20
1.784527
30
0.0
0
VERTEX
100
AcDbVertex
100
AcDb2dVertex
8
Layer01
10
32.153008
20
1.741392
30
0.0
0
VERTEX
100
AcDbVertex
100
AcDb2dVertex
8
Layer01
10
32.967
20
1.658272
30
0.0
0
VERTEX
100
AcDbVertex
100
AcDb2dVertex
8
Layer01
10
33.374001
20
1.618155
30
0.0
0
VERTEX
100
AcDbVertex
100
AcDb2dVertex
8
Layer01
10
33.781002
20
1.578474
30
0.0
0
VERTEX
100
AcDbVertex
100
AcDb2dVertex
8
Layer01
10
34.188003
20
1.539116
30
0.0
0
VERTEX
100
AcDbVertex
100
AcDb2dVertex
8
Layer01
10
34.595003
20
1.499968
30
0.0
0
VERTEX
100
AcDbVertex
100
AcDb2dVertex
8
Layer01
10
35.002004
20
1.460928
30
0.0
0
VERTEX
100
AcDbVertex
100
AcDb2dVertex
8
Layer01
10
35.409005
20
1.421902
30
0.0
0
VERTEX
100
AcDbVertex
100
AcDb2dVertex
8
Layer01
10
35.816006
20
1.382809
30
0.0
0
VERTEX
100
AcDbVertex
100
AcDb2dVertex
8
Layer01
10
36.223007
20
1.343586
30
0.0
0
VERTEX
100
AcDbVertex
100
AcDb2dVertex
8
Layer01
10
37.037002
20
1.261261
30
0.0
0
VERTEX
100
AcDbVertex
100
AcDb2dVertex
8
Layer01
10
37.444003
20
1.218398
30
0.0
0
VERTEX
100
AcDbVertex
100
AcDb2dVertex
8
Layer01
10
37.851004
20
1.175879
30
0.0
0
VERTEX
100
AcDbVertex
100
AcDb2dVertex
8
Layer01
10
38.258005
20
1.133999
30
0.0
0
VERTEX
100
AcDbVertex
100
AcDb2dVertex
8
Layer01
10
38.665006
20
1.093054
30
0.0
0
VERTEX
100
AcDbVertex
100
AcDb2dVertex
8
Layer01
10
39.072006
20
1.053343
30
0.0
0
VERTEX
100
AcDbVertex
100
AcDb2dVertex
8
Layer01
10
39.479007
20
1.015158
30
0.0
0
VERTEX
100
AcDbVertex
100
AcDb2dVertex
8
Layer01
10
39.886008
20
0.978774
30
0.0
0
VERTEX
100
AcDbVertex
100
AcDb2dVertex
8
Layer01
10
40.293009
20
0.94445
30
0.0
0
VERTEX
100
AcDbVertex
100
AcDb2dVertex
8
Layer01
10
41.107001
20
0.887115
30
0.0
0
VERTEX
100
AcDbVertex
100
AcDb2dVertex
8
Layer01
10
41.514002
20
0.864131
30
0.0
0
VERTEX
100
AcDbVertex
100
AcDb2dVertex
8
Layer01
10
41.921003
20
0.84326
30
0.0
0
VERTEX
100
AcDbVertex
100
AcDb2dVertex
8
Layer01
10
42.328004
20
0.824269
30
0.0
0
VERTEX
100
AcDbVertex
100
AcDb2dVertex
8
Layer01
10
42.735005
20
0.806905
30
0.0
0
VERTEX
100
AcDbVertex
100
AcDb2dVertex
8
Layer01
10
43.142006
20
0.790896
30
0.0
0
VERTEX
100
AcDbVertex
100
AcDb2dVertex
8
Layer01
10
43.549006
20
0.775962
30
0.0
0
VERTEX
100
AcDbVertex
100
AcDb2dVertex
8
Layer01
10
43.956007
20
0.761815
30
0.0
0
VERTEX
100
AcDbVertex
100
AcDb2dVertex
8
Layer01
10
44.363008
20
0.748172
30
0.0
0
VERTEX
100
AcDbVertex
100
AcDb2dVertex
8
Layer01
10
45.177001
20
0.71863
30
0.0
0
VERTEX
100
AcDbVertex
100
AcDb2dVertex
8
Layer01
10
45.584001
20
0.702425
30
0.0
0
VERTEX
100
AcDbVertex
100
AcDb2dVertex
8
Layer01
10
45.991002
20
0.68612
30
0.0
0
VERTEX
100
AcDbVertex
100
AcDb2dVertex
8
Layer01
10
46.398003
20
0.669707
30
0.0
0
VERTEX
100
AcDbVertex
100
AcDb2dVertex
8
Layer01
10
46.805004
20
0.653192
30
0.0
0
VERTEX
100
AcDbVertex
100
AcDb2dVertex
8
Layer01
10
47.212005
20
0.636593
30
0.0
0
VERTEX
100
AcDbVertex
100
AcDb2dVertex
8
Layer01
10
47.619006
20
0.61994
30
0.0
0
VERTEX
100
AcDbVertex
100
AcDb2dVertex
8
Layer01
10
48.026006
20
0.603269
30
0.0
0
VERTEX
100
AcDbVertex
100
AcDb2dVertex
8
Layer01
10
48.433007
20
0.586621
30
0.0
0
VERTEX
100
AcDbVertex
100
AcDb2dVertex
8
Layer01
10
49.247
20
0.554247
30
0.0
0
VERTEX
100
AcDbVertex
100
AcDb2dVertex
8
Layer01
10
49.654001
20
0.538566
30
0.0
0
VERTEX
100
AcDbVertex
100
AcDb2dVertex
8
Layer01
10
50.061001
20
0.523
30
0.0
0
VERTEX
100
AcDbVertex
100
AcDb2dVertex
8
Layer01
10
50.468002
20
0.507547
30
0.0
0
VERTEX
100
AcDbVertex
100
AcDb2dVertex
8
Layer01
10
50.875
20
0.492205
30
0.0
0
VERTEX
100
AcDbVertex
100
AcDb2dVertex
8
Layer01
10
51.282001
20
0.476973
30
0.0
0
VERTEX
100
AcDbVertex
100
AcDb2dVertex
8
Layer01
10
51.689002
20
0.461847
30
0.0
0
VERTEX
100
AcDbVertex
100
AcDb2dVertex
8
Layer01
10
52.096002
20
0.446827
30
0.0
0
VERTEX
100
AcDbVertex
100
AcDb2dVertex
8
Layer01
10
52.503003
20
0.43191
30
0.0
0
VERTEX
100
AcDbVertex
100
AcDb2dVertex
8
Layer01
10
53.316999
20
0.402695
30
0.0
0
VERTEX
100
AcDbVertex
100
AcDb2dVertex
8
Layer01
10
53.724
20
0.388369
30
0.0
0
VERTEX
100
AcDbVertex
100
AcDb2dVertex
8
Layer01
10
54.131001
20
0.374091
30
0.0
0
VERTEX
100
AcDbVertex
100
AcDb2dVertex
8
Layer01
10
54.538001
20
0.359836
30
0.0
0
VERTEX
100
AcDbVertex
100
AcDb2dVertex
8
Layer01
10
54.945002
20
0.345585
30
0.0
0
VERTEX
100
AcDbVertex
100
AcDb2dVertex
8
Layer01
10
55.352003
20
0.331321
30
0.0
0
VERTEX
100
AcDbVertex
100
AcDb2dVertex
8
Layer01
10
55.759004
20
0.317032
30
0.0
0
VERTEX
100
AcDbVertex
100
AcDb2dVertex
8
Layer01
10
56.166005
20
0.302713
30
0.0
0
VERTEX
100
AcDbVertex
100
AcDb2dVertex
8
Layer01
10
56.573005
20
0.288363
30
0.0
0
VERTEX
100
AcDbVertex
100
AcDb2dVertex
8
Layer01
10
57.387001
20
0.258341
30
0.0
0
VERTEX
100
AcDbVertex
100
AcDb2dVertex
8
Layer01
10
57.794002
20
0.242809
30
0.0
0
VERTEX
100
AcDbVertex
100
AcDb2dVertex
8
Layer01
10
58.201003
20
0.227525
30
0.0
0
VERTEX
100
AcDbVertex
100
AcDb2dVertex
8
Layer01
10
58.608004
20
0.212623
30
0.0
0
VERTEX
100
AcDbVertex
100
AcDb2dVertex
8
Layer01
10
59.015004
20
0.198237
30
0.0
0
VERTEX
100
AcDbVertex
100
AcDb2dVertex
8
Layer01
10
59.422005
20
0.1845
30
0.0
0
VERTEX
100
AcDbVertex
100
AcDb2dVertex
8
Layer01
10
59.829006
20
0.171539
30
0.0
0
VERTEX
100
AcDbVertex
100
AcDb2dVertex
8
Layer01
10
60.236007
20
0.159475
30
0.0
0
VERTEX
100
AcDbVertex
100
AcDb2dVertex
8
Layer01
10
60.643008
20
0.148417
30
0.0
0
VERTEX
100
AcDbVertex
100
AcDb2dVertex
8
Layer01
10
61.457003
20
0.131601
30
0.0
0
VERTEX
100
AcDbVertex
100
AcDb2dVertex
8
Layer01
10
61.864004
20
0.125839
30
0.0
0
VERTEX
100
AcDbVertex
100
AcDb2dVertex
8
Layer01
10
62.271005
20
0.121073
30
0.0
0
VERTEX
100
AcDbVertex
100
AcDb2dVertex
8
Layer01
10
62.678006
20
0.11719
30
0.0
0
VERTEX
100
AcDbVertex
100
AcDb2dVertex
8
Layer01
10
63.085007
20
0.114065
30
0.0
0
VERTEX
100
AcDbVertex
100
AcDb2dVertex
8
Layer01
10
63.492007
20
0.111567
30
0.0
0
VERTEX
100
AcDbVertex
100
AcDb2dVertex
8
Layer01
10
63.899008
20
0.109558
30
0.0
0
VERTEX
100
AcDbVertex
100
AcDb2dVertex
8
Layer01
10
64.306009
20
0.1079
30
0.0
0
VERTEX
100
AcDbVertex
100
AcDb2dVertex
8
Layer01
10
64.71301
20
0.106454
30
0.0
0
VERTEX
100
AcDbVertex
100
AcDb2dVertex
8
Layer01
10
65.526999
20
0.102392
30
0.0
0
VERTEX
100
AcDbVertex
100
AcDb2dVertex
8
Layer01
10
65.934
20
0.099628
30
0.0
0
VERTEX
100
AcDbVertex
100
AcDb2dVertex
8
Layer01
10
66.341001
20
0.096784
30
0.0
0
VERTEX
100
AcDbVertex
100
AcDb2dVertex
8
Layer01
10
66.748002
20
0.093855
30
0.0
0
VERTEX
100
AcDbVertex
100
AcDb2dVertex
8
Layer01
10
67.155003
20
0.090843
30
0.0
0
VERTEX
100
AcDbVertex
100
AcDb2dVertex
8
Layer01
10
67.562003
20
0.087759
30
0.0
0
VERTEX
100
AcDbVertex
100
AcDb2dVertex
8
Layer01
10
67.969004
20
0.084614
30
0.0
0
VERTEX
100
AcDbVertex
100
AcDb2dVertex
8
Layer01
10
68.376005
20
0.081427
30
0.0
0
VERTEX
100
AcDbVertex
100
AcDb2dVertex
8
Layer01
10
68.783006
20
0.078218
30
0.0
0
VERTEX
100
AcDbVertex
100
AcDb2dVertex
8
Layer01
10
69.597002
20
0.072146
30
0.0
0
VERTEX
100
AcDbVertex
100
AcDb2dVertex
8
Layer01
10
70.004002
20
0.069305
30
0.0
0
VERTEX
100
AcDbVertex
100
AcDb2dVertex
8
Layer01
10
70.411003
20
0.066488
30
0.0
0
VERTEX
100
AcDbVertex
100
AcDb2dVertex
8
Layer01
10
70.818004
20
0.063693
30
0.0
0
VERTEX
100
AcDbVertex
100
AcDb2dVertex
8
Layer01
10
71.225005
20
0.06092
30
0.0
0
VERTEX
100
AcDbVertex
100
AcDb2dVertex
8
Layer01
10
71.632006
20
0.058169
30
0.0
0
VERTEX
100
AcDbVertex
100
AcDb2dVertex
8
Layer01
10
72.039007
20
0.055439
30
0.0
0
VERTEX
100
AcDbVertex
100
AcDb2dVertex
8
Layer01
10
72.446007
20
0.052731
30
0.0
0
VERTEX
100
AcDbVertex
100
AcDb2dVertex
8
Layer01
10
72.853008
20
0.050042
30
0.0
0
VERTEX
100
AcDbVertex
100
AcDb2dVertex
8
Layer01
10
73.667004
20
0.044905
30
0.0
0
VERTEX
100
AcDbVertex
100
AcDb2dVertex
8
Layer01
10
74.074005
20
0.042442
30
0.0
0
VERTEX
100
AcDbVertex
100
AcDb2dVertex
8
Layer01
10
74.481005
20
0.039971
30
0.0
0
VERTEX
100
AcDbVertex
100
AcDb2dVertex
8
Layer01
10
74.888006
20
0.037482
30
0.0
0
VERTEX
100
AcDbVertex
100
AcDb2dVertex
8
Layer01
10
75.295007
20
0.034963
30
0.0
0
VERTEX
100
AcDbVertex
100
AcDb2dVertex
8
Layer01
10
75.702008
20
0.032405
30
0.0
0
VERTEX
100
AcDbVertex
100
AcDb2dVertex
8
Layer01
10
76.109009
20
0.029804
30
0.0
0
VERTEX
100
AcDbVertex
100
AcDb2dVertex
8
Layer01
10
76.51601
20
0.027157
30
0.0
0
VERTEX
100
AcDbVertex
100
AcDb2dVertex
8
Layer01
10
76.92301
20
0.024465
30
0.0
0
VERTEX
100
AcDbVertex
100
AcDb2dVertex
8
Layer01
10
77.737
20
0.018269
30
0.0
0
VERTEX
100
AcDbVertex
100
AcDb2dVertex
8
Layer01
10
78.144001
20
0.014845
30
0.0
0
VERTEX
100
AcDbVertex
100
AcDb2dVertex
8
Layer01
10
78.551002
20
0.011533
30
0.0
0
VERTEX
100
AcDbVertex
100
AcDb2dVertex
8
Layer01
10
78.958002
20
0.008408
30
0.0
0
VERTEX
100
AcDbVertex
100
AcDb2dVertex
8
Layer01
10
79.365003
20
0.005545
30
0.0
0
VERTEX
100
AcDbVertex
100
AcDb2dVertex
8
Layer01
10
79.772004
20
0.003019
30
0.0
0
VERTEX
100
AcDbVertex
100
AcDb2dVertex
8
Layer01
10
80.179005
20
0.000901
30
0.0
0
VERTEX
100
AcDbVertex
100
AcDb2dVertex
8
Layer01
10
80.586006
20
-0.000741
30
0.0
0
VERTEX
100
AcDbVertex
100
AcDb2dVertex
8
Layer01
10
80.993006
20
-0.001846
30
0.0
0
VERTEX
100
AcDbVertex
100
AcDb2dVertex
8
Layer01
10
81.807002
20
-0.001186
30
0.0
0
VERTEX
100
AcDbVertex
100
AcDb2dVertex
8
Layer01
10
82.214003
20
0.000579
30
0.0
0
VERTEX
100
AcDbVertex
100
AcDb2dVertex
8
Layer01
10
82.621004
20
0.002882
30
0.0
0
VERTEX
100
AcDbVertex
100
AcDb2dVertex
8
Layer01
10
83.028005
20
0.005662
30
0.0
0
VERTEX
100
AcDbVertex
100
AcDb2dVertex
8
Layer01
10
83.435005
20
0.00885
30
0.0
0
VERTEX
100
AcDbVertex
100
AcDb2dVertex
8
Layer01
10
83.842006
20
0.012376
30
0.0
0
VERTEX
100
AcDbVertex
100
AcDb2dVertex
8
Layer01
10
84.249007
20
0.016166
30
0.0
0
VERTEX
100
AcDbVertex
100
AcDb2dVertex
8
Layer01
10
84.656008
20
0.020144
30
0.0
0
VERTEX
100
AcDbVertex
100
AcDb2dVertex
8
Layer01
10
85.063009
20
0.024235
30
0.0
0
VERTEX
100
AcDbVertex
100
AcDb2dVertex
8
Layer01
10
85.876998
20
0.031774
30
0.0
0
VERTEX
100
AcDbVertex
100
AcDb2dVertex
8
Layer01
10
86.283999
20
0.035142
30
0.0
0
VERTEX
100
AcDbVertex
100
AcDb2dVertex
8
Layer01
10
86.691
20
0.038464
30
0.0
0
VERTEX
100
AcDbVertex
100
AcDb2dVertex
8
Layer01
10
87.098001
20
0.041739
30
0.0
0
VERTEX
100
AcDbVertex
100
AcDb2dVertex
8
Layer01
10
87.505001
20
0.044969
30
0.0
0
VERTEX
100
AcDbVertex
100
AcDb2dVertex
8
Layer01
10
87.912002
20
0.048158
30
0.0
0
VERTEX
100
AcDbVertex
100
AcDb2dVertex
8
Layer01
10
88.319003
20
0.051313
30
0.0
0
VERTEX
100
AcDbVertex
100
AcDb2dVertex
8
Layer01
10
88.726004
20
0.054445
30
0.0
0
VERTEX
100
AcDbVertex
100
AcDb2dVertex
8
Layer01
10
89.133005
20
0.057565
30
0.0
0
VERTEX
100
AcDbVertex
100
AcDb2dVertex
8
Layer01
10
89.947
20
0.063989
30
0.0
0
VERTEX
100
AcDbVertex
100
AcDb2dVertex
8
Layer01
10
90.354001
20
0.067307
30
0.0
0
VERTEX
100
AcDbVertex
100
AcDb2dVertex
8
Layer01
10
90.761002
20
0.070637
30
0.0
0
VERTEX
100
AcDbVertex
100
AcDb2dVertex
8
Layer01
10
91.168003
20
0.073979
30
0.0
0
VERTEX
100
AcDbVertex
100
AcDb2dVertex
8
Layer01
10
91.575004
20
0.077332
30
0.0
0
VERTEX
100
AcDbVertex
100
AcDb2dVertex
8
Layer01
10
91.982004
20
0.080696
30
0.0
0
VERTEX
100
AcDbVertex
100
AcDb2dVertex
8
Layer01
10
92.389005
20
0.084072
30
0.0
0
VERTEX
100
AcDbVertex
100
AcDb2dVertex
8
Layer01
10
92.796006
20
0.087458
30
0.0
0
VERTEX
100
AcDbVertex
100
AcDb2dVertex
8
Layer01
10
93.203007
20
0.090854
30
0.0
0
VERTEX
100
AcDbVertex
100
AcDb2dVertex
8
Layer01
10
94.017003
20
0.097678
30
0.0
0
VERTEX
100
AcDbVertex
100
AcDb2dVertex
8
Layer01
10
94.424003
20
0.101104
30
0.0
0
VERTEX
100
AcDbVertex
100
AcDb2dVertex
8
Layer01
10
94.831004
20
0.104541
30
0.0
0
VERTEX
100
AcDbVertex
100
AcDb2dVertex
8
Layer01
10
95.238005
20
0.107987
30
0.0
0
VERTEX
100
AcDbVertex
100
AcDb2dVertex
8
Layer01
10
95.645006
20
0.111442
30
0.0
0
VERTEX
100
AcDbVertex
100
AcDb2dVertex
8
Layer01
10
96.052007
20
0.114907
30
0.0
0
VERTEX
100
AcDbVertex
100
AcDb2dVertex
8
Layer01
10
96.459007
20
0.118381
30
0.0
0
VERTEX
100
AcDbVertex
100
AcDb2dVertex
8
Layer01
10
96.866008
20
0.121864
30
0.0
0
VERTEX
100
AcDbVertex
100
AcDb2dVertex
8
Layer01
10
97.273009
20
0.125356
30
0.0
0
VERTEX
100
AcDbVertex
100
AcDb2dVertex
8
Layer01
10
98.086999
20
0.132366
30
0.0
0
VERTEX
100
AcDbVertex
100
AcDb2dVertex
8
Layer01
10
98.493999
20
0.135884
30
0.0
0
VERTEX
100
AcDbVertex
100
AcDb2dVertex
8
Layer01
10
98.901
20
0.139411
30
0.0
0
VERTEX
100
AcDbVertex
100
AcDb2dVertex
8
Layer01
10
99.308001
20
0.142945
30
0.0
0
VERTEX
100
AcDbVertex
100
AcDb2dVertex
8
Layer01
10
99.715002
20
0.146487
30
0.0
0
VERTEX
100
AcDbVertex
100
AcDb2dVertex
8
Layer01
10
100.122003
20
0.150037
30
0.0
0
VERTEX
100
AcDbVertex
100
AcDb2dVertex
8
Layer01
10
100.529004
20
0.153593
30
0.0
0
VERTEX
100
AcDbVertex
100
AcDb2dVertex
8
Layer01
10
100.936004
20
0.157157
30
0.0
0
VERTEX
100
AcDbVertex
100
AcDb2dVertex
8
Layer01
10
101.343005
20
0.160728
30
0.0
0
VERTEX
100
AcDbVertex
100
AcDb2dVertex
8
Layer01
10
101.75
20
0.164306
30
0.0
0
VERTEX
100
AcDbVertex
100
AcDb2dVertex
8
Layer01
10
102.156995
20
0.16789
30
0.0
0
VERTEX
100
AcDbVertex
100
AcDb2dVertex
8
Layer01
10
102.56399
20
0.17148
30
0.0
0
VERTEX
100
AcDbVertex
100
AcDb2dVertex
8
Layer01
10
102.970984
20
0.175077
30
0.0
0
VERTEX
100
AcDbVertex
100
AcDb2dVertex
8
Layer01
10
103.377979
20
0.178679
30
0.0
0
VERTEX
100
AcDbVertex
100
AcDb2dVertex
8
Layer01
10
103.784974
20
0.182287
30
0.0
0
VERTEX
100
AcDbVertex
100
AcDb2dVertex
8
Layer01
10
104.191969
20
0.185901
30
0.0
0
VERTEX
100
AcDbVertex
100
AcDb2dVertex
8
Layer01
10
104.598963
20
0.18952
30
0.0
0
VERTEX
100
AcDbVertex
100
AcDb2dVertex
8
Layer01
10
105.005958
20
0.193144
30
0.0
0
VERTEX
100
AcDbVertex
100
AcDb2dVertex
8
Layer01
10
105.412953
20
0.196772
30
0.0
0
VERTEX
100
AcDbVertex
100
AcDb2dVertex
8
Layer01
10
105.819948
20
0.200406
30
0.0
0
VERTEX
100
AcDbVertex
100
AcDb2dVertex
8
Layer01
10
106.226991
20
0.204044
30
0.0
0
VERTEX
100
AcDbVertex
100
AcDb2dVertex
8
Layer01
10
106.633986
20
0.207686
30
0.0
0
VERTEX
100
AcDbVertex
100
AcDb2dVertex
8
Layer01
10
107.04098
20
0.211333
30
0.0
0
VERTEX
100
AcDbVertex
100
AcDb2dVertex
8
Layer01
10
107.447975
20
0.214984
30
0.0
0
VERTEX
100
AcDbVertex
100
AcDb2dVertex
8
Layer01
10
107.85497
20
0.218641
30
0.0
0
VERTEX
100
AcDbVertex
100
AcDb2dVertex
8
Layer01
10
108.261965
20
0.222302
30
0.0
0
VERTEX
100
AcDbVertex
100
AcDb2dVertex
8
Layer01
10
108.668959
20
0.225968
30
0.0
0
VERTEX
100
AcDbVertex
100
AcDb2dVertex
8
Layer01
10
109.075954
20
0.229639
30
0.0
0
VERTEX
100
AcDbVertex
100
AcDb2dVertex
8
Layer01
10
109.482949
20
0.233315
30
0.0
0
VERTEX
100
AcDbVertex
100
AcDb2dVertex
8
Layer01
10
109.889944
20
0.236996
30
0.0
0
VERTEX
100
AcDbVertex
100
AcDb2dVertex
8
Layer01
10
110.296999
20
0.240683
30
0.0
0
VERTEX
100
AcDbVertex
100
AcDb2dVertex
8
Layer01
10
110.703994
20
0.244376
30
0.0
0
VERTEX
100
AcDbVertex
100
AcDb2dVertex
8
Layer01
10
111.110989
20
0.248073
30
0.0
0
VERTEX
100
AcDbVertex
100
AcDb2dVertex
8
Layer01
10
111.517983
20
0.251774
30
0.0
0
VERTEX
100
AcDbVertex
100
AcDb2dVertex
8
Layer01
10
111.924978
20
0.25548
30
0.0
0
VERTEX
100
AcDbVertex
100
AcDb2dVertex
8
Layer01
10
112.331973
20
0.259191
30
0.0
0
VERTEX
100
AcDbVertex
100
AcDb2dVertex
8
Layer01
10
112.738968
20
0.262906
30
0.0
0
VERTEX
100
AcDbVertex
100
AcDb2dVertex
8
Layer01
10
113.145962
20
0.266624
30
0.0
0
VERTEX
100
AcDbVertex
100
AcDb2dVertex
8
Layer01
10
113.552957
20
0.270347
30
0.0
0
VERTEX
100
AcDbVertex
100
AcDb2dVertex
8
Layer01
10
113.959952
20
0.274073
30
0.0
0
VERTEX
100
AcDbVertex
100
AcDb2dVertex
8
Layer01
10
114.366995
20
0.277863
30
0.0
0
VERTEX
100
AcDbVertex
100
AcDb2dVertex
8
Layer01
10
114.77399
20
0.281652
30
0.0
0
VERTEX
100
AcDbVertex
100
AcDb2dVertex
8
Layer01
10
115.180985
20
0.285435
30
0.0
0
VERTEX
100
AcDbVertex
100
AcDb2dVertex
8
Layer01
10
115.58798
20
0.289208
30
0.0
0
VERTEX
100
AcDbVertex
100
AcDb2dVertex
8
Layer01
10
115.994974
20
0.292969
30
0.0
0
VERTEX
100
AcDbVertex
100
AcDb2dVertex
8
Layer01
10
116.401969
20
0.296714
30
0.0
0
VERTEX
100
AcDbVertex
100
AcDb2dVertex
8
Layer01
10
116.808964
20
0.300441
30
0.0
0
VERTEX
100
AcDbVertex
100
AcDb2dVertex
8
Layer01
10
117.215959
20
0.304151
30
0.0
0
VERTEX
100
AcDbVertex
100
AcDb2dVertex
8
Layer01
10
117.622953
20
0.307842
30
0.0
0
VERTEX
100
AcDbVertex
100
AcDb2dVertex
8
Layer01
10
118.029948
20
0.311517
30
0.0
0
VERTEX
100
AcDbVertex
100
AcDb2dVertex
8
Layer01
10
118.436991
20
0.314942
30
0.0
0
VERTEX
100
AcDbVertex
100
AcDb2dVertex
8
Layer01
10
118.843986
20
0.318377
30
0.0
0
VERTEX
100
AcDbVertex
100
AcDb2dVertex
8
Layer01
10
119.250981
20
0.321848
30
0.0
0
VERTEX
100
AcDbVertex
100
AcDb2dVertex
8
Layer01
10
119.657976
20
0.32538
30
0.0
0
VERTEX
100
AcDbVertex
100
AcDb2dVertex
8
Layer01
10
120.06497
20
0.329
30
0.0
0
VERTEX
100
AcDbVertex
100
AcDb2dVertex
8
Layer01
10
120.471965
20
0.332732
30
0.0
0
VERTEX
100
AcDbVertex
100
AcDb2dVertex
8
Layer01
10
120.87896
20
0.3366
30
0.0
0
VERTEX
100
AcDbVertex
100
AcDb2dVertex
8
Layer01
10
121.285955
20
0.340629
30
0.0
0
VERTEX
100
AcDbVertex
100
AcDb2dVertex
8
Layer01
10
121.692949
20
0.344838
30
0.0
0
VERTEX
100
AcDbVertex
100
AcDb2dVertex
8
Layer01
10
122.099944
20
0.349246
30
0.0
0
VERTEX
100
AcDbVertex
100
AcDb2dVertex
8
Layer01
10
122.507
20
0.354228
30
0.0
0
VERTEX
100
AcDbVertex
100
AcDb2dVertex
8
Layer01
10
122.913994
20
0.359408
30
0.0
0
VERTEX
100
AcDbVertex
100
AcDb2dVertex
8
Layer01
10
123.320989
20
0.364769
30
0.0
0
VERTEX
100
AcDbVertex
100
AcDb2dVertex
8
Layer01
10
123.727984
20
0.37029
30
0.0
0
VERTEX
100
AcDbVertex
100
AcDb2dVertex
8
Layer01
10
124.134979
20
0.375948
30
0.0
0
VERTEX
100
AcDbVertex
100
AcDb2dVertex
8
Layer01
10
124.541973
20
0.381718
30
0.0
0
VERTEX
100
AcDbVertex
100
AcDb2dVertex
8
Layer01
10
124.948968
20
0.387574
30
0.0
0
VERTEX
100
AcDbVertex
100
AcDb2dVertex
8
Layer01
10
125.355963
20
0.393493
30
0.0
0
VERTEX
100
AcDbVertex
100
AcDb2dVertex
8
Layer01
10
125.762958
20
0.399447
30
0.0
0
VERTEX
100
AcDbVertex
100
AcDb2dVertex
8
Layer01
10
126.169952
20
0.405412
30
0.0
0
VERTEX
100
AcDbVertex
100
AcDb2dVertex
8
Layer01
10
126.576996
20
0.411127
30
0.0
0
VERTEX
100
AcDbVertex
100
AcDb2dVertex
8
Layer01
10
126.98399
20
0.416825
30
0.0
0
VERTEX
100
AcDbVertex
100
AcDb2dVertex
8
Layer01
10
127.390985
20
0.422505
30
0.0
0
VERTEX
100
AcDbVertex
100
AcDb2dVertex
8
Layer01
10
127.79798
20
0.428165
30
0.0
0
VERTEX
100
AcDbVertex
100
AcDb2dVertex
8
Layer01
10
128.204975
20
0.433807
30
0.0
0
VERTEX
100
AcDbVertex
100
AcDb2dVertex
8
Layer01
10
128.61197
20
0.439432
30
0.0
0
VERTEX
100
AcDbVertex
100
AcDb2dVertex
8
Layer01
10
129.018964
20
0.445042
30
0.0
0
VERTEX
100
AcDbVertex
100
AcDb2dVertex
8
Layer01
10
129.425959
20
0.450641
30
0.0
0
VERTEX
100
AcDbVertex
100
AcDb2dVertex
8
Layer01
10
129.832954
20
0.456233
30
0.0
0
VERTEX
100
AcDbVertex
100
AcDb2dVertex
8
Layer01
10
130.239949
20
0.461822
30
0.0
0
VERTEX
100
AcDbVertex
100
AcDb2dVertex
8
Layer01
10
130.646992
20
0.467472
30
0.0
0
VERTEX
100
AcDbVertex
100
AcDb2dVertex
8
Layer01
10
131.053987
20
0.473123
30
0.0
0
VERTEX
100
AcDbVertex
100
AcDb2dVertex
8
Layer01
10
131.460981
20
0.478774
30
0.0
0
VERTEX
100
AcDbVertex
100
AcDb2dVertex
8
Layer01
10
131.867976
20
0.484426
30
0.0
0
VERTEX
100
AcDbVertex
100
AcDb2dVertex
8
Layer01
10
132.274971
20
0.490079
30
0.0
0
VERTEX
100
AcDbVertex
100
AcDb2dVertex
8
Layer01
10
132.681966
20
0.495733
30
0.0
0
VERTEX
100
AcDbVertex
100
AcDb2dVertex
8
Layer01
10
133.08896
20
0.501388
30
0.0
0
VERTEX
100
AcDbVertex
100
AcDb2dVertex
8
Layer01
10
133.495955
20
0.507043
30
0.0
0
VERTEX
100
AcDbVertex
100
AcDb2dVertex
8
Layer01
10
133.90295
20
0.512698
30
0.0
0
VERTEX
100
AcDbVertex
100
AcDb2dVertex
8
Layer01
10
134.309945
20
0.518354
30
0.0
0
VERTEX
100
AcDbVertex
100
AcDb2dVertex
8
Layer01
10
134.717
20
0.524011
30
0.0
0
VERTEX
100
AcDbVertex
100
AcDb2dVertex
8
Layer01
10
135.123995
20
0.529668
30
0.0
0
VERTEX
100
AcDbVertex
100
AcDb2dVertex
8
Layer01
10
135.53099
20
0.535325
30
0.0
0
VERTEX
100
AcDbVertex
100
AcDb2dVertex
8
Layer01
10
135.937984
20
0.540982
30
0.0
0
VERTEX
100
AcDbVertex
100
AcDb2dVertex
8
Layer01
10
136.344979
20
0.546639
30
0.0
0
VERTEX
100
AcDbVertex
100
AcDb2dVertex
8
Layer01
10
136.751974
20
0.552296
30
0.0
0
VERTEX
100
AcDbVertex
100
AcDb2dVertex
8
Layer01
10
137.158969
20
0.557954
30
0.0
0
VERTEX
100
AcDbVertex
100
AcDb2dVertex
8
Layer01
10
137.565963
20
0.563612
30
0.0
0
VERTEX
100
AcDbVertex
100
AcDb2dVertex
8
Layer01
10
137.972958
20
0.56927
30
0.0
0
VERTEX
100
AcDbVertex
100
AcDb2dVertex
8
Layer01
10
138.379953
20
0.574928
30
0.0
0
VERTEX
100
AcDbVertex
100
AcDb2dVertex
8
Layer01
10
138.786996
20
0.580587
30
0.0
0
VERTEX
100
AcDbVertex
100
AcDb2dVertex
8
Layer01
10
139.193991
20
0.586245
30
0.0
0
VERTEX
100
AcDbVertex
100
AcDb2dVertex
8
Layer01
10
139.600986
20
0.591903
30
0.0
0
VERTEX
100
AcDbVertex
100
AcDb2dVertex
8
Layer01
10
140.00798
20
0.597561
30
0.0
0
VERTEX
100
AcDbVertex
100
AcDb2dVertex
8
Layer01
10
140.414975
20
0.603219
30
0.0
0
VERTEX
100
AcDbVertex
100
AcDb2dVertex
8
Layer01
10
140.82197
20
0.608876
30
0.0
0
VERTEX
100
AcDbVertex
100
AcDb2dVertex
8
Layer01
10
141.228965
20
0.614533
30
0.0
0
VERTEX
100
AcDbVertex
100
AcDb2dVertex
8
Layer01
10
141.63596
20
0.62019
30
0.0
0
VERTEX
100
AcDbVertex
100
AcDb2dVertex
8
Layer01
10
142.042954
20
0.625845
30
0.0
0
VERTEX
100
AcDbVertex
100
AcDb2dVertex
8
Layer01
10
142.449949
20
0.6315
30
0.0
0
VERTEX
100
AcDbVertex
100
AcDb2dVertex
8
Layer01
10
142.856992
20
0.637156
30
0.0
0
VERTEX
100
AcDbVertex
100
AcDb2dVertex
8
Layer01
10
143.263987
20
0.642809
30
0.0
0
VERTEX
100
AcDbVertex
100
AcDb2dVertex
8
Layer01
10
143.670982
20
0.648461
30
0.0
0
VERTEX
100
AcDbVertex
100
AcDb2dVertex
8
Layer01
10
144.077977
20
0.654113
30
0.0
0
VERTEX
100
AcDbVertex
100
AcDb2dVertex
8
Layer01
10
144.484971
20
0.659763
30
0.0
0
VERTEX
100
AcDbVertex
100
AcDb2dVertex
8
Layer01
10
144.891966
20
0.665412
30
0.0
0
VERTEX
100
AcDbVertex
100
AcDb2dVertex
8
Layer01
10
145.298961
20
0.671059
30
0.0
0
VERTEX
100
AcDbVertex
100
AcDb2dVertex
8
Layer01
10
145.705956
20
0.676705
30
0.0
0
VERTEX
100
AcDbVertex
100
AcDb2dVertex
8
Layer01
10
146.11295
20
0.682349
30
0.0
0
VERTEX
100
AcDbVertex
100
AcDb2dVertex
8
Layer01
10
146.519945
20
0.687992
30
0.0
0
VERTEX
100
AcDbVertex
100
AcDb2dVertex
8
Layer01
10
146.927001
20
0.693633
30
0.0
0
VERTEX
100
AcDbVertex
100
AcDb2dVertex
8
Layer01
10
147.333995
20
0.699272
30
0.0
0
VERTEX
100
AcDbVertex
100
AcDb2dVertex
8
Layer01
10
147.74099
20
0.704909
30
0.0
0
VERTEX
100
AcDbVertex
100
AcDb2dVertex
8
Layer01
10
148.147985
20
0.710544
30
0.0
0
VERTEX
100
AcDbVertex
100
AcDb2dVertex
8
Layer01
10
148.55498
20
0.716177
30
0.0
0
VERTEX
100
AcDbVertex
100
AcDb2dVertex
8
Layer01
10
148.961974
20
0.721809
30
0.0
0
VERTEX
100
AcDbVertex
100
AcDb2dVertex
8
Layer01
10
149.368969
20
0.72744
30
0.0
0
VERTEX
100
AcDbVertex
100
AcDb2dVertex
8
Layer01
10
149.775964
20
0.733068
30
0.0
0
VERTEX
100
AcDbVertex
100
AcDb2dVertex
8
Layer01
10
150.182959
20
0.738695
30
0.0
0
VERTEX
100
AcDbVertex
100
AcDb2dVertex
8
Layer01
10
150.589953
20
0.744321
30
0.0
0
VERTEX
100
AcDbVertex
100
AcDb2dVertex
8
Layer01
10
150.996997
20
0.749947
30
0.0
0
VERTEX
100
AcDbVertex
100
AcDb2dVertex
8
Layer01
10
151.403991
20
0.75557
30
0.0
0
VERTEX
100
AcDbVertex
100
AcDb2dVertex
8
Layer01
10
151.810986
20
0.761192
30
0.0
0
VERTEX
100
AcDbVertex
100
AcDb2dVertex
8
Layer01
10
152.217981
20
0.766811
30
0.0
0
VERTEX
100
AcDbVertex
100
AcDb2dVertex
8
Layer01
10
152.624976
20
0.772429
30
0.0
0
VERTEX
100
AcDbVertex
100
AcDb2dVertex
8
Layer01
10
153.031971
20
0.778045
30
0.0
0
VERTEX
100
AcDbVertex
100
AcDb2dVertex
8
Layer01
10
153.438965
20
0.783659
30
0.0
0
VERTEX
100
AcDbVertex
100
AcDb2dVertex
8
Layer01
10
153.84596
20
0.789271
30
0.0
0
VERTEX
100
AcDbVertex
100
AcDb2dVertex
8
Layer01
10
154.252955
20
0.79488
30
0.0
0
VERTEX
100
AcDbVertex
100
AcDb2dVertex
8
Layer01
10
154.65995
20
0.800487
30
0.0
0
VERTEX
100
AcDbVertex
100
AcDb2dVertex
8
Layer01
10
155.066993
20
0.806054
30
0.0
0
VERTEX
100
AcDbVertex
100
AcDb2dVertex
8
Layer01
10
155.473988
20
0.811621
30
0.0
0
VERTEX
100
AcDbVertex
100
AcDb2dVertex
8
Layer01
10
155.880982
20
0.817191
30
0.0
0
VERTEX
100
AcDbVertex
100
AcDb2dVertex
8
Layer01
10
156.287977
20
0.822766
30
0.0
0
VERTEX
100
AcDbVertex
100
AcDb2dVertex
8
Layer01
10
156.694972
20
0.828349
30
0.0
0
VERTEX
100
AcDbVertex
100
AcDb2dVertex
8
Layer01
10
157.101967
20
0.83394
30
0.0
0
VERTEX
100
AcDbVertex
100
AcDb2dVertex
8
Layer01
10
157.508961
20
0.839542
30
0.0
0
VERTEX
100
AcDbVertex
100
AcDb2dVertex
8
Layer01
10
157.915956
20
0.845155
30
0.0
0
VERTEX
100
AcDbVertex
100
AcDb2dVertex
8
Layer01
10
158.322951
20
0.850777
30
0.0
0
VERTEX
100
AcDbVertex
100
AcDb2dVertex
8
Layer01
10
158.729946
20
0.856409
30
0.0
0
VERTEX
100
AcDbVertex
100
AcDb2dVertex
8
Layer01
10
159.136989
20
0.862197
30
0.0
0
VERTEX
100
AcDbVertex
100
AcDb2dVertex
8
Layer01
10
159.543984
20
0.867977
30
0.0
0
VERTEX
100
AcDbVertex
100
AcDb2dVertex
8
Layer01
10
159.950978
20
0.873732
30
0.0
0
VERTEX
100
AcDbVertex
100
AcDb2dVertex
8
Layer01
10
160.357973
20
0.879449
30
0.0
0
VERTEX
100
AcDbVertex
100
AcDb2dVertex
8
Layer01
10
160.764968
20
0.885109
30
0.0
0
VERTEX
100
AcDbVertex
100
AcDb2dVertex
8
Layer01
10
161.171963
20
0.890697
30
0.0
0
VERTEX
100
AcDbVertex
100
AcDb2dVertex
8
Layer01
10
161.578957
20
0.896199
30
0.0
0
VERTEX
100
AcDbVertex
100
AcDb2dVertex
8
Layer01
10
161.985952
20
0.9016
30
0.0
0
VERTEX
100
AcDbVertex
100
AcDb2dVertex
8
Layer01
10
162.392947
20
0.906886
30
0.0
0
VERTEX
100
AcDbVertex
100
AcDb2dVertex
8
Layer01
10
162.799942
20
0.912046
30
0.0
0
VERTEX
100
AcDbVertex
100
AcDb2dVertex
8
Layer01
10
163.206997
20
0.916846
30
0.0
0
VERTEX
100
AcDbVertex
100
AcDb2dVertex
8
Layer01
10
163.613992
20
0.92152
30
0.0
0
VERTEX
100
AcDbVertex
100
AcDb2dVertex
8
Layer01
10
164.020987
20
0.926079
30
0.0
0
VERTEX
100
AcDbVertex
100
AcDb2dVertex
8
Layer01
10
164.427981
20
0.930537
30
0.0
0
VERTEX
100
AcDbVertex
100
AcDb2dVertex
8
Layer01
10
164.834976
20
0.934908
30
0.0
0
VERTEX
100
AcDbVertex
100
AcDb2dVertex
8
Layer01
10
165.241971
20
0.939206
30
0.0
0
VERTEX
100
AcDbVertex
100
AcDb2dVertex
8
Layer01
10
165.648966
20
0.943449
30
0.0
0
VERTEX
100
AcDbVertex
100
AcDb2dVertex
8
Layer01
10
166.055961
20
0.947652
30
0.0
0
VERTEX
100
AcDbVertex
100
AcDb2dVertex
8
Layer01
10
166.462955
20
0.951831
30
0.0
0
VERTEX
100
AcDbVertex
100
AcDb2dVertex
8
Layer01
10
166.86995
20
0.956002
30
0.0
0
VERTEX
100
AcDbVertex
100
AcDb2dVertex
8
Layer01
10
167.276993
20
0.960329
30
0.0
0
VERTEX
100
AcDbVertex
100
AcDb2dVertex
8
Layer01
10
167.683988
20
0.964664
30
0.0
0
VERTEX
100
AcDbVertex
100
AcDb2dVertex
8
Layer01
10
168.090983
20
0.969009
30
0.0
0
VERTEX
100
AcDbVertex
100
AcDb2dVertex
8
Layer01
10
168.497978
20
0.973363
30
0.0
0
VERTEX
100
AcDbVertex
100
AcDb2dVertex
8
Layer01
10
168.904972
20
0.977727
30
0.0
0
VERTEX
100
AcDbVertex
100
AcDb2dVertex
8
Layer01
10
169.311967
20
0.9821
30
0.0
0
VERTEX
100
AcDbVertex
100
AcDb2dVertex
8
Layer01
10
169.718962
20
0.986479
30
0.0
0
VERTEX
100
AcDbVertex
100
AcDb2dVertex
8
Layer01
10
170.125957
20
0.990862
30
0.0
0
VERTEX
100
AcDbVertex
100
AcDb2dVertex
8
Layer01
10
170.532951
20
0.995248
30
0.0
0
VERTEX
100
AcDbVertex
100
AcDb2dVertex
8
Layer01
10
170.939946
20
0.999632
30
0.0
0
VERTEX
100
AcDbVertex
100
AcDb2dVertex
8
Layer01
10
171.346989
20
1.003975
30
0.0
0
VERTEX
100
AcDbVertex
100
AcDb2dVertex
8
Layer01
10
171.753984
20
1.008314
30
0.0
0
VERTEX
100
AcDbVertex
100
AcDb2dVertex
8
Layer01
10
172.160979
20
1.01265
30
0.0
0
VERTEX
100
AcDbVertex
100
AcDb2dVertex
8
Layer01
10
172.567974
20
1.016982
30
0.0
0
VERTEX
100
AcDbVertex
100
AcDb2dVertex
8
Layer01
10
172.974968
20
1.02131
30
0.0
0
VERTEX
100
AcDbVertex
100
AcDb2dVertex
8
Layer01
10
173.381963
20
1.025634
30
0.0
0
VERTEX
100
AcDbVertex
100
AcDb2dVertex
8
Layer01
10
173.788958
20
1.029955
30
0.0
0
VERTEX
100
AcDbVertex
100
AcDb2dVertex
8
Layer01
10
174.195953
20
1.034272
30
0.0
0
VERTEX
100
AcDbVertex
100
AcDb2dVertex
8
Layer01
10
174.602948
20
1.038586
30
0.0
0
VERTEX
100
AcDbVertex
100
AcDb2dVertex
8
Layer01
10
175.009942
20
1.042896
30
0.0
0
VERTEX
100
AcDbVertex
100
AcDb2dVertex
8
Layer01
10
175.416998
20
1.047204
30
0.0
0
VERTEX
100
AcDbVertex
100
AcDb2dVertex
8
Layer01
10
175.823992
20
1.051508
30
0.0
0
VERTEX
100
AcDbVertex
100
AcDb2dVertex
8
Layer01
10
176.230987
20
1.055808
30
0.0
0
VERTEX
100
AcDbVertex
100
AcDb2dVertex
8
Layer01
10
176.637982
20
1.060105
30
0.0
0
VERTEX
100
AcDbVertex
100
AcDb2dVertex
8
Layer01
10
177.044977
20
1.064397
30
0.0
0
VERTEX
100
AcDbVertex
100
AcDb2dVertex
8
Layer01
10
177.451971
20
1.068685
30
0.0
0
VERTEX
100
AcDbVertex
100
AcDb2dVertex
8
Layer01
10
177.858966
20
1.072969
30
0.0
0
VERTEX
100
AcDbVertex
100
AcDb2dVertex
8
Layer01
10
178.265961
20
1.077248
30
0.0
0
VERTEX
100
AcDbVertex
100
AcDb2dVertex
8
Layer01
10
178.672956
20
1.081523
30
0.0
0
VERTEX
100
AcDbVertex
100
AcDb2dVertex
8
Layer01
10
179.079951
20
1.085794
30
0.0
0
VERTEX
100
AcDbVertex
100
AcDb2dVertex
8
Layer01
10
179.486994
20
1.090059
30
0.0
0
VERTEX
100
AcDbVertex
100
AcDb2dVertex
8
Layer01
10
179.893989
20
1.09432
30
0.0
0
VERTEX
100
AcDbVertex
100
AcDb2dVertex
8
Layer01
10
180.300983
20
1.098576
30
0.0
0
VERTEX
100
AcDbVertex
100
AcDb2dVertex
8
Layer01
10
180.707978
20
1.102827
30
0.0
0
VERTEX
100
AcDbVertex
100
AcDb2dVertex
8
Layer01
10
181.114973
20
1.107074
30
0.0
0
VERTEX
100
AcDbVertex
100
AcDb2dVertex
8
Layer01
10
181.521968
20
1.111316
30
0.0
0
VERTEX
100
AcDbVertex
100
AcDb2dVertex
8
Layer01
10
181.928962
20
1.115555
30
0.0
0
VERTEX
100
AcDbVertex
100
AcDb2dVertex
8
Layer01
10
182.335957
20
1.119789
30
0.0
0
VERTEX
100
AcDbVertex
100
AcDb2dVertex
8
Layer01
10
182.742952
20
1.124018
30
0.0
0
VERTEX
100
AcDbVertex
100
AcDb2dVertex
8
Layer01
10
183.149947
20
1.128244
30
0.0
0
VERTEX
100
AcDbVertex
100
AcDb2dVertex
8
Layer01
10
183.55699
20
1.132467
30
0.0
0
VERTEX
100
AcDbVertex
100
AcDb2dVertex
8
Layer01
10
183.963985
20
1.136685
30
0.0
0
VERTEX
100
AcDbVertex
100
AcDb2dVertex
8
Layer01
10
184.370979
20
1.1409
30
0.0
0
VERTEX
100
AcDbVertex
100
AcDb2dVertex
8
Layer01
10
184.777974
20
1.14511
30
0.0
0
VERTEX
100
AcDbVertex
100
AcDb2dVertex
8
Layer01
10
185.184969
20
1.149316
30
0.0
0
VERTEX
100
AcDbVertex
100
AcDb2dVertex
8
Layer01
10
185.591964
20
1.153519
30
0.0
0
VERTEX
100
AcDbVertex
100
AcDb2dVertex
8
Layer01
10
185.998958
20
1.157717
30
0.0
0
VERTEX
100
AcDbVertex
100
AcDb2dVertex
8
Layer01
10
186.405953
20
1.161911
30
0.0
0
VERTEX
100
AcDbVertex
100
AcDb2dVertex
8
Layer01
10
186.812948
20
1.166101
30
0.0
0
VERTEX
100
AcDbVertex
100
AcDb2dVertex
8
Layer01
10
187.219943
20
1.170287
30
0.0
0
VERTEX
100
AcDbVertex
100
AcDb2dVertex
8
Layer01
10
187.626998
20
1.17447
30
0.0
0
VERTEX
100
AcDbVertex
100
AcDb2dVertex
8
Layer01
10
188.033993
20
1.178647
30
0.0
0
VERTEX
100
AcDbVertex
100
AcDb2dVertex
8
Layer01
10
188.440988
20
1.182821
30
0.0
0
VERTEX
100
AcDbVertex
100
AcDb2dVertex
8
Layer01
10
188.847982
20
1.18699
30
0.0
0
VERTEX
100
AcDbVertex
100
AcDb2dVertex
8
Layer01
10
189.254977
20
1.191156
30
0.0
0
VERTEX
100
AcDbVertex
100
AcDb2dVertex
8
Layer01
10
189.661972
20
1.195318
30
0.0
0
VERTEX
100
AcDbVertex
100
AcDb2dVertex
8
Layer01
10
190.068967
20
1.199475
30
0.0
0
VERTEX
100
AcDbVertex
100
AcDb2dVertex
8
Layer01
10
190.475961
20
1.203629
30
0.0
0
VERTEX
100
AcDbVertex
100
AcDb2dVertex
8
Layer01
10
190.882956
20
1.207778
30
0.0
0
VERTEX
100
AcDbVertex
100
AcDb2dVertex
8
Layer01
10
191.289951
20
1.211923
30
0.0
0
VERTEX
100
AcDbVertex
100
AcDb2dVertex
8
Layer01
10
191.696994
20
1.216066
30
0.0
0
VERTEX
100
AcDbVertex
100
AcDb2dVertex
8
Layer01
10
192.103989
20
1.220203
30
0.0
0
VERTEX
100
AcDbVertex
100
AcDb2dVertex
8
Layer01
10
192.510984
20
1.224337
30
0.0
0
VERTEX
100
AcDbVertex
100
AcDb2dVertex
8
Layer01
10
192.917979
20
1.228466
30
0.0
0
VERTEX
100
AcDbVertex
100
AcDb2dVertex
8
Layer01
10
193.324973
20
1.232592
30
0.0
0
VERTEX
100
AcDbVertex
100
AcDb2dVertex
8
Layer01
10
193.731968
20
1.236713
30
0.0
0
VERTEX
100
AcDbVertex
100
AcDb2dVertex
8
Layer01
10
194.138963
20
1.240829
30
0.0
0
VERTEX
100
AcDbVertex
100
AcDb2dVertex
8
Layer01
10
194.545958
20
1.244941
30
0.0
0
VERTEX
100
AcDbVertex
100
AcDb2dVertex
8
Layer01
10
194.952952
20
1.249049
30
0.0
0
VERTEX
100
AcDbVertex
100
AcDb2dVertex
8
Layer01
10
195.359947
20
1.253152
30
0.0
0
VERTEX
100
AcDbVertex
100
AcDb2dVertex
8
Layer01
10
195.76699
20
1.257194
30
0.0
0
VERTEX
100
AcDbVertex
100
AcDb2dVertex
8
Layer01
10
196.173985
20
1.261235
30
0.0
0
VERTEX
100
AcDbVertex
100
AcDb2dVertex
8
Layer01
10
196.58098
20
1.26528
30
0.0
0
VERTEX
100
AcDbVertex
100
AcDb2dVertex
8
Layer01
10
196.987975
20
1.269332
30
0.0
0
VERTEX
100
AcDbVertex
100
AcDb2dVertex
8
Layer01
10
197.394969
20
1.273396
30
0.0
0
VERTEX
100
AcDbVertex
100
AcDb2dVertex
8
Layer01
10
197.801964
20
1.277473
30
0.0
0
VERTEX
100
AcDbVertex
100
AcDb2dVertex
8
Layer01
10
198.208959
20
1.281565
30
0.0
0
VERTEX
100
AcDbVertex
100
AcDb2dVertex
8
Layer01
10
198.615954
20
1.285673
30
0.0
0
VERTEX
100
AcDbVertex
100
AcDb2dVertex
8
Layer01
10
199.022948
20
1.289797
30
0.0
0
VERTEX
100
AcDbVertex
100
AcDb2dVertex
8
Layer01
10
199.429943
20
1.293934
30
0.0
0
VERTEX
100
AcDbVertex
100
AcDb2dVertex
8
Layer01
10
199.836999
20
1.298311
30
0.0
0
VERTEX
100
AcDbVertex
100
AcDb2dVertex
8
Layer01
10
200.243993
20
1.302675
30
0.0
0
VERTEX
100
AcDbVertex
100
AcDb2dVertex
8
Layer01
10
200.650988
20
1.307003
30
0.0
0
VERTEX
100
AcDbVertex
100
AcDb2dVertex
8
Layer01
10
201.057983
20
1.311269
30
0.0
0
VERTEX
100
AcDbVertex
100
AcDb2dVertex
8
Layer01
10
201.464978
20
1.315451
30
0.0
0
VERTEX
100
AcDbVertex
100
AcDb2dVertex
8
Layer01
10
201.871972
20
1.319522
30
0.0
0
VERTEX
100
AcDbVertex
100
AcDb2dVertex
8
Layer01
10
202.278967
20
1.323461
30
0.0
0
VERTEX
100
AcDbVertex
100
AcDb2dVertex
8
Layer01
10
202.685962
20
1.327244
30
0.0
0
VERTEX
100
AcDbVertex
100
AcDb2dVertex
8
Layer01
10
203.092957
20
1.330852
30
0.0
0
VERTEX
100
AcDbVertex
100
AcDb2dVertex
8
Layer01
10
203.499951
20
1.334268
30
0.0
0
VERTEX
100
AcDbVertex
100
AcDb2dVertex
8
Layer01
10
203.906995
20
1.337131
30
0.0
0
VERTEX
100
AcDbVertex
100
AcDb2dVertex
8
Layer01
10
204.31399
20
1.339801
30
0.0
0
VERTEX
100
AcDbVertex
100
AcDb2dVertex
8
Layer01
10
204.720984
20
1.342297
30
0.0
0
VERTEX
100
AcDbVertex
100
AcDb2dVertex
8
Layer01
10
205.127979
20
1.344637
30
0.0
0
VERTEX
100
AcDbVertex
100
AcDb2dVertex
8
Layer01
10
205.534974
20
1.346845
30
0.0
0
VERTEX
100
AcDbVertex
100
AcDb2dVertex
8
Layer01
10
205.941969
20
1.348943
30
0.0
0
VERTEX
100
AcDbVertex
100
AcDb2dVertex
8
Layer01
10
206.348963
20
1.350957
30
0.0
0
VERTEX
100
AcDbVertex
100
AcDb2dVertex
8
Layer01
10
206.755958
20
1.35291
30
0.0
0
VERTEX
100
AcDbVertex
100
AcDb2dVertex
8
Layer01
10
207.162953
20
1.354828
30
0.0
0
VERTEX
100
AcDbVertex
100
AcDb2dVertex
8
Layer01
10
207.569948
20
1.356734
30
0.0
0
VERTEX
100
AcDbVertex
100
AcDb2dVertex
8
Layer01
10
207.976991
20
1.358882
30
0.0
0
VERTEX
100
AcDbVertex
100
AcDb2dVertex
8
Layer01
10
208.383986
20
1.361043
30
0.0
0
VERTEX
100
AcDbVertex
100
AcDb2dVertex
8
Layer01
10
208.79098
20
1.363221
30
0.0
0
VERTEX
100
AcDbVertex
100
AcDb2dVertex
8
Layer01
10
209.197975
20
1.365415
30
0.0
0
VERTEX
100
AcDbVertex
100
AcDb2dVertex
8
Layer01
10
209.60497
20
1.367626
30
0.0
0
VERTEX
100
AcDbVertex
100
AcDb2dVertex
8
Layer01
10
210.011965
20
1.369851
30
0.0
0
VERTEX
100
AcDbVertex
100
AcDb2dVertex
8
Layer01
10
210.418959
20
1.372088
30
0.0
0
VERTEX
100
AcDbVertex
100
AcDb2dVertex
8
Layer01
10
210.825954
20
1.374333
30
0.0
0
VERTEX
100
AcDbVertex
100
AcDb2dVertex
8
Layer01
10
211.232949
20
1.376584
30
0.0
0
VERTEX
100
AcDbVertex
100
AcDb2dVertex
8
Layer01
10
211.639944
20
1.378834
30
0.0
0
VERTEX
100
AcDbVertex
100
AcDb2dVertex
8
Layer01
10
212.046987
20
1.381023
30
0.0
0
VERTEX
100
AcDbVertex
100
AcDb2dVertex
8
Layer01
10
212.453982
20
1.383208
30
0.0
0
VERTEX
100
AcDbVertex
100
AcDb2dVertex
8
Layer01
10
212.860977
20
1.385389
30
0.0
0
VERTEX
100
AcDbVertex
100
AcDb2dVertex
8
Layer01
10
213.267971
20
1.387567
30
0.0
0
VERTEX
100
AcDbVertex
100
AcDb2dVertex
8
Layer01
10
213.674966
20
1.389742
30
0.0
0
VERTEX
100
AcDbVertex
100
AcDb2dVertex
8
Layer01
10
214.081961
20
1.391913
30
0.0
0
VERTEX
100
AcDbVertex
100
AcDb2dVertex
8
Layer01
10
214.488956
20
1.394081
30
0.0
0
VERTEX
100
AcDbVertex
100
AcDb2dVertex
8
Layer01
10
214.89595
20
1.396246
30
0.0
0
VERTEX
100
AcDbVertex
100
AcDb2dVertex
8
Layer01
10
215.302945
20
1.398409
30
0.0
0
VERTEX
100
AcDbVertex
100
AcDb2dVertex
8
Layer01
10
215.70994
20
1.400568
30
0.0
0
VERTEX
100
AcDbVertex
100
AcDb2dVertex
8
Layer01
10
216.116983
20
1.402727
30
0.0
0
VERTEX
100
AcDbVertex
100
AcDb2dVertex
8
Layer01
10
216.523978
20
1.404882
30
0.0
0
VERTEX
100
AcDbVertex
100
AcDb2dVertex
8
Layer01
10
216.930973
20
1.407035
30
0.0
0
VERTEX
100
AcDbVertex
100
AcDb2dVertex
8
Layer01
10
217.337967
20
1.409185
30
0.0
0
VERTEX
100
AcDbVertex
100
AcDb2dVertex
8
Layer01
10
217.744962
20
1.411331
30
0.0
0
VERTEX
100
AcDbVertex
100
AcDb2dVertex
8
Layer01
10
218.151957
20
1.413475
30
0.0
0
VERTEX
100
AcDbVertex
100
AcDb2dVertex
8
Layer01
10
218.558952
20
1.415615
30
0.0
0
VERTEX
100
AcDbVertex
100
AcDb2dVertex
8
Layer01
10
218.965946
20
1.417753
30
0.0
0
VERTEX
100
AcDbVertex
100
AcDb2dVertex
8
Layer01
10
219.372941
20
1.419886
30
0.0
0
VERTEX
100
AcDbVertex
100
AcDb2dVertex
8
Layer01
10
219.779936
20
1.422017
30
0.0
0
VERTEX
100
AcDbVertex
100
AcDb2dVertex
8
Layer01
10
220.187003
20
1.424142
30
0.0
0
VERTEX
100
AcDbVertex
100
AcDb2dVertex
8
Layer01
10
220.593998
20
1.426264
30
0.0
0
VERTEX
100
AcDbVertex
100
AcDb2dVertex
8
Layer01
10
221.000993
20
1.428383
30
0.0
0
VERTEX
100
AcDbVertex
100
AcDb2dVertex
8
Layer01
10
221.407988
20
1.430498
30
0.0
0
VERTEX
100
AcDbVertex
100
AcDb2dVertex
8
Layer01
10
221.814983
20
1.432611
30
0.0
0
VERTEX
100
AcDbVertex
100
AcDb2dVertex
8
Layer01
10
222.221977
20
1.434722
30
0.0
0
VERTEX
100
AcDbVertex
100
AcDb2dVertex
8
Layer01
10
222.628972
20
1.43683
30
0.0
0
VERTEX
100
AcDbVertex
100
AcDb2dVertex
8
Layer01
10
223.035967
20
1.438935
30
0.0
0
VERTEX
100
AcDbVertex
100
AcDb2dVertex
8
Layer01
10
223.442962
20
1.441039
30
0.0
0
VERTEX
100
AcDbVertex
100
AcDb2dVertex
8
Layer01
10
223.849956
20
1.44314
30
0.0
0
VERTEX
100
AcDbVertex
100
AcDb2dVertex
8
Layer01
10
224.257
20
1.445243
30
0.0
0
VERTEX
100
AcDbVertex
100
AcDb2dVertex
8
Layer01
10
224.663994
20
1.447343
30
0.0
0
VERTEX
100
AcDbVertex
100
AcDb2dVertex
8
Layer01
10
225.070989
20
1.449441
30
0.0
0
VERTEX
100
AcDbVertex
100
AcDb2dVertex
8
Layer01
10
225.477984
20
1.451537
30
0.0
0
VERTEX
100
AcDbVertex
100
AcDb2dVertex
8
Layer01
10
225.884979
20
1.453631
30
0.0
0
VERTEX
100
AcDbVertex
100
AcDb2dVertex
8
Layer01
10
226.291973
20
1.455722
30
0.0
0
VERTEX
100
AcDbVertex
100
AcDb2dVertex
8
Layer01
10
226.698968
20
1.457811
30
0.0
0
VERTEX
100
AcDbVertex
100
AcDb2dVertex
8
Layer01
10
227.105963
20
1.459897
30
0.0
0
VERTEX
100
AcDbVertex
100
AcDb2dVertex
8
Layer01
10
227.512958
20
1.46198
30
0.0
0
VERTEX
100
AcDbVertex
100
AcDb2dVertex
8
Layer01
10
227.919952
20
1.46406
30
0.0
0
VERTEX
100
AcDbVertex
100
AcDb2dVertex
8
Layer01
10
228.326996
20
1.466135
30
0.0
0
VERTEX
100
AcDbVertex
100
AcDb2dVertex
8
Layer01
10
228.73399
20
1.468207
30
0.0
0
VERTEX
100
AcDbVertex
100
AcDb2dVertex
8
Layer01
10
229.140985
20
1.470276
30
0.0
0
VERTEX
100
AcDbVertex
100
AcDb2dVertex
8
Layer01
10
229.54798
20
1.472343
30
0.0
0
VERTEX
100
AcDbVertex
100
AcDb2dVertex
8
Layer01
10
229.954975
20
1.474407
30
0.0
0
VERTEX
100
AcDbVertex
100
AcDb2dVertex
8
Layer01
10
230.36197
20
1.476468
30
0.0
0
VERTEX
100
AcDbVertex
100
AcDb2dVertex
8
Layer01
10
230.768964
20
1.478528
30
0.0
0
VERTEX
100
AcDbVertex
100
AcDb2dVertex
8
Layer01
10
231.175959
20
1.480585
30
0.0
0
VERTEX
100
AcDbVertex
100
AcDb2dVertex
8
Layer01
10
231.582954
20
1.482641
30
0.0
0
VERTEX
100
AcDbVertex
100
AcDb2dVertex
8
Layer01
10
231.989949
20
1.484695
30
0.0
0
VERTEX
100
AcDbVertex
100
AcDb2dVertex
8
Layer01
10
232.396992
20
1.486749
30
0.0
0
VERTEX
100
AcDbVertex
100
AcDb2dVertex
8
Layer01
10
232.803987
20
1.488801
30
0.0
0
VERTEX
100
AcDbVertex
100
AcDb2dVertex
8
Layer01
10
233.210981
20
1.490852
30
0.0
0
VERTEX
100
AcDbVertex
100
AcDb2dVertex
8
Layer01
10
233.617976
20
1.492902
30
0.0
0
VERTEX
100
AcDbVertex
100
AcDb2dVertex
8
Layer01
10
234.024971
20
1.49495
30
0.0
0
VERTEX
100
AcDbVertex
100
AcDb2dVertex
8
Layer01
10
234.431966
20
1.496996
30
0.0
0
VERTEX
100
AcDbVertex
100
AcDb2dVertex
8
Layer01
10
234.83896
20
1.499041
30
0.0
0
VERTEX
100
AcDbVertex
100
AcDb2dVertex
8
Layer01
10
235.245955
20
1.501085
30
0.0
0
VERTEX
100
AcDbVertex
100
AcDb2dVertex
8
Layer01
10
235.65295
20
1.503127
30
0.0
0
VERTEX
100
AcDbVertex
100
AcDb2dVertex
8
Layer01
10
236.059945
20
1.505167
30
0.0
0
VERTEX
100
AcDbVertex
100
AcDb2dVertex
8
Layer01
10
236.466988
20
1.507173
30
0.0
0
VERTEX
100
AcDbVertex
100
AcDb2dVertex
8
Layer01
10
236.873983
20
1.50918
30
0.0
0
VERTEX
100
AcDbVertex
100
AcDb2dVertex
8
Layer01
10
237.280977
20
1.51119
30
0.0
0
VERTEX
100
AcDbVertex
100
AcDb2dVertex
8
Layer01
10
237.687972
20
1.513205
30
0.0
0
VERTEX
100
AcDbVertex
100
AcDb2dVertex
8
Layer01
10
238.094967
20
1.515227
30
0.0
0
VERTEX
100
AcDbVertex
100
AcDb2dVertex
8
Layer01
10
238.501962
20
1.517258
30
0.0
0
VERTEX
100
AcDbVertex
100
AcDb2dVertex
8
Layer01
10
238.908957
20
1.519299
30
0.0
0
VERTEX
100
AcDbVertex
100
AcDb2dVertex
8
Layer01
10
239.315951
20
1.521349
30
0.0
0
VERTEX
100
AcDbVertex
100
AcDb2dVertex
8
Layer01
10
239.722946
20
1.523409
30
0.0
0
VERTEX
100
AcDbVertex
100
AcDb2dVertex
8
Layer01
10
240.129941
20
1.525476
30
0.0
0
VERTEX
100
AcDbVertex
100
AcDb2dVertex
8
Layer01
10
240.536984
20
1.527682
30
0.0
0
VERTEX
100
AcDbVertex
100
AcDb2dVertex
8
Layer01
10
240.943979
20
1.52988
30
0.0
0
VERTEX
100
AcDbVertex
100
AcDb2dVertex
8
Layer01
10
241.350974
20
1.532058
30
0.0
0
VERTEX
100
AcDbVertex
100
AcDb2dVertex
8
Layer01
10
241.757968
20
1.534202
30
0.0
0
VERTEX
100
AcDbVertex
100
AcDb2dVertex
8
Layer01
10
242.164963
20
1.536297
30
0.0
0
VERTEX
100
AcDbVertex
100
AcDb2dVertex
8
Layer01
10
242.571958
20
1.53833
30
0.0
0
VERTEX
100
AcDbVertex
100
AcDb2dVertex
8
Layer01
10
242.978953
20
1.540287
30
0.0
0
VERTEX
100
AcDbVertex
100
AcDb2dVertex
8
Layer01
10
243.385947
20
1.542156
30
0.0
0
VERTEX
100
AcDbVertex
100
AcDb2dVertex
8
Layer01
10
243.792942
20
1.543924
30
0.0
0
VERTEX
100
AcDbVertex
100
AcDb2dVertex
8
Layer01
10
244.199937
20
1.545582
30
0.0
0
VERTEX
100
AcDbVertex
100
AcDb2dVertex
8
Layer01
10
244.607004
20
1.546925
30
0.0
0
VERTEX
100
AcDbVertex
100
AcDb2dVertex
8
Layer01
10
245.013999
20
1.548157
30
0.0
0
VERTEX
100
AcDbVertex
100
AcDb2dVertex
8
Layer01
10
245.420994
20
1.549289
30
0.0
0
VERTEX
100
AcDbVertex
100
AcDb2dVertex
8
Layer01
10
245.827989
20
1.550332
30
0.0
0
VERTEX
100
AcDbVertex
100
AcDb2dVertex
8
Layer01
10
246.234984
20
1.5513
30
0.0
0
VERTEX
100
AcDbVertex
100
AcDb2dVertex
8
Layer01
10
246.641978
20
1.552204
30
0.0
0
VERTEX
100
AcDbVertex
100
AcDb2dVertex
8
Layer01
10
247.048973
20
1.55306
30
0.0
0
VERTEX
100
AcDbVertex
100
AcDb2dVertex
8
Layer01
10
247.455968
20
1.55388
30
0.0
0
VERTEX
100
AcDbVertex
100
AcDb2dVertex
8
Layer01
10
247.862963
20
1.55468
30
0.0
0
VERTEX
100
AcDbVertex
100
AcDb2dVertex
8
Layer01
10
248.269957
20
1.555473
30
0.0
0
VERTEX
100
AcDbVertex
100
AcDb2dVertex
8
Layer01
10
248.677001
20
1.556402
30
0.0
0
VERTEX
100
AcDbVertex
100
AcDb2dVertex
8
Layer01
10
249.083995
20
1.557339
30
0.0
0
VERTEX
100
AcDbVertex
100
AcDb2dVertex
8
Layer01
10
249.49099
20
1.558284
30
0.0
0
VERTEX
100
AcDbVertex
100
AcDb2dVertex
8
Layer01
10
249.897985
20
1.559238
30
0.0
0
VERTEX
100
AcDbVertex
100
AcDb2dVertex
8
Layer01
10
250.30498
20
1.5602
30
0.0
0
VERTEX
100
AcDbVertex
100
AcDb2dVertex
8
Layer01
10
250.711974
20
1.561169
30
0.0
0
VERTEX
100
AcDbVertex
100
AcDb2dVertex
8
Layer01
10
251.118969
20
1.562143
30
0.0
0
VERTEX
100
AcDbVertex
100
AcDb2dVertex
8
Layer01
10
251.525964
20
1.563121
30
0.0
0
VERTEX
100
AcDbVertex
100
AcDb2dVertex
8
Layer01
10
251.932959
20
1.5641
30
0.0
0
VERTEX
100
AcDbVertex
100
AcDb2dVertex
8
Layer01
10
252.339953
20
1.565078
30
0.0
0
VERTEX
100
AcDbVertex
100
AcDb2dVertex
8
Layer01
10
252.746997
20
1.566019
30
0.0
0
VERTEX
100
AcDbVertex
100
AcDb2dVertex
8
Layer01
10
253.153991
20
1.566955
30
0.0
0
VERTEX
100
AcDbVertex
100
AcDb2dVertex
8
Layer01
10
253.560986
20
1.567888
30
0.0
0
VERTEX
100
AcDbVertex
100
AcDb2dVertex
8
Layer01
10
253.967981
20
1.568815
30
0.0
0
VERTEX
100
AcDbVertex
100
AcDb2dVertex
8
Layer01
10
254.374976
20
1.569738
30
0.0
0
VERTEX
100
AcDbVertex
100
AcDb2dVertex
8
Layer01
10
254.781971
20
1.570656
30
0.0
0
VERTEX
100
AcDbVertex
100
AcDb2dVertex
8
Layer01
10
255.188965
20
1.571569
30
0.0
0
VERTEX
100
AcDbVertex
100
AcDb2dVertex
8
Layer01
10
255.59596
20
1.572477
30
0.0
0
VERTEX
100
AcDbVertex
100
AcDb2dVertex
8
Layer01
10
256.002955
20
1.573379
30
0.0
0
VERTEX
100
AcDbVertex
100
AcDb2dVertex
8
Layer01
10
256.40995
20
1.574276
30
0.0
0
VERTEX
100
AcDbVertex
100
AcDb2dVertex
8
Layer01
10
256.816993
20
1.575166
30
0.0
0
VERTEX
100
AcDbVertex
100
AcDb2dVertex
8
Layer01
10
257.223988
20
1.57605
30
0.0
0
VERTEX
100
AcDbVertex
100
AcDb2dVertex
8
Layer01
10
257.630982
20
1.576928
30
0.0
0
VERTEX
100
AcDbVertex
100
AcDb2dVertex
8
Layer01
10
258.037977
20
1.5778
30
0.0
0
VERTEX
100
AcDbVertex
100
AcDb2dVertex
8
Layer01
10
258.444972
20
1.578666
30
0.0
0
VERTEX
100
AcDbVertex
100
AcDb2dVertex
8
Layer01
10
258.851967
20
1.579526
30
0.0
0
VERTEX
100
AcDbVertex
100
AcDb2dVertex
8
Layer01
10
259.258961
20
1.58038
30
0.0
0
VERTEX
100
AcDbVertex
100
AcDb2dVertex
8
Layer01
10
259.665956
20
1.581228
30
0.0
0
VERTEX
100
AcDbVertex
100
AcDb2dVertex
8
Layer01
10
260.072951
20
1.582069
30
0.0
0
VERTEX
100
AcDbVertex
100
AcDb2dVertex
8
Layer01
10
260.479946
20
1.582904
30
0.0
0
VERTEX
100
AcDbVertex
100
AcDb2dVertex
8
Layer01
10
260.886989
20
1.583734
30
0.0
0
VERTEX
100
AcDbVertex
100
AcDb2dVertex
8
Layer01
10
261.293984
20
1.584557
30
0.0
0
VERTEX
100
AcDbVertex
100
AcDb2dVertex
8
Layer01
10
261.700978
20
1.585373
30
0.0
0
VERTEX
100
AcDbVertex
100
AcDb2dVertex
8
Layer01
10
262.107973
20
1.586182
30
0.0
0
VERTEX
100
AcDbVertex
100
AcDb2dVertex
8
Layer01
10
262.514968
20
1.586985
30
0.0
0
VERTEX
100
AcDbVertex
100
AcDb2dVertex
8
Layer01
10
262.921963
20
1.587779
30
0.0
0
VERTEX
100
AcDbVertex
100
AcDb2dVertex
8
Layer01
10
263.328957
20
1.588567
30
0.0
0
VERTEX
100
AcDbVertex
100
AcDb2dVertex
8
Layer01
10
263.735952
20
1.589346
30
0.0
0
VERTEX
100
AcDbVertex
100
AcDb2dVertex
8
Layer01
10
264.142947
20
1.590118
30
0.0
0
VERTEX
100
AcDbVertex
100
AcDb2dVertex
8
Layer01
10
264.549942
20
1.590881
30
0.0
0
VERTEX
100
AcDbVertex
100
AcDb2dVertex
8
Layer01
10
264.956985
20
1.591636
30
0.0
0
VERTEX
100
AcDbVertex
100
AcDb2dVertex
8
Layer01
10
265.36398
20
1.592382
30
0.0
0
VERTEX
100
AcDbVertex
100
AcDb2dVertex
8
Layer01
10
265.770975
20
1.593119
30
0.0
0
VERTEX
100
AcDbVertex
100
AcDb2dVertex
8
Layer01
10
266.177969
20
1.593849
30
0.0
0
VERTEX
100
AcDbVertex
100
AcDb2dVertex
8
Layer01
10
266.584964
20
1.594569
30
0.0
0
VERTEX
100
AcDbVertex
100
AcDb2dVertex
8
Layer01
10
266.991959
20
1.595282
30
0.0
0
VERTEX
100
AcDbVertex
100
AcDb2dVertex
8
Layer01
10
267.398954
20
1.595986
30
0.0
0
VERTEX
100
AcDbVertex
100
AcDb2dVertex
8
Layer01
10
267.805948
20
1.596681
30
0.0
0
VERTEX
100
AcDbVertex
100
AcDb2dVertex
8
Layer01
10
268.212943
20
1.597367
30
0.0
0
VERTEX
100
AcDbVertex
100
AcDb2dVertex
8
Layer01
10
268.619938
20
1.598045
30
0.0
0
VERTEX
100
AcDbVertex
100
AcDb2dVertex
8
Layer01
10
269.027005
20
1.598715
30
0.0
0
VERTEX
100
AcDbVertex
100
AcDb2dVertex
8
Layer01
10
269.434
20
1.599377
30
0.0
0
VERTEX
100
AcDbVertex
100
AcDb2dVertex
8
Layer01
10
269.840995
20
1.600029
30
0.0
0
VERTEX
100
AcDbVertex
100
AcDb2dVertex
8
Layer01
10
270.24799
20
1.600671
30
0.0
0
VERTEX
100
AcDbVertex
100
AcDb2dVertex
8
Layer01
10
270.654984
20
1.601304
30
0.0
0
VERTEX
100
AcDbVertex
100
AcDb2dVertex
8
Layer01
10
271.061979
20
1.601927
30
0.0
0
VERTEX
100
AcDbVertex
100
AcDb2dVertex
8
Layer01
10
271.468974
20
1.602539
30
0.0
0
VERTEX
100
AcDbVertex
100
AcDb2dVertex
8
Layer01
10
271.875969
20
1.603141
30
0.0
0
VERTEX
100
AcDbVertex
100
AcDb2dVertex
8
Layer01
10
272.282964
20
1.603732
30
0.0
0
VERTEX
100
AcDbVertex
100
AcDb2dVertex
8
Layer01
10
272.689958
20
1.604313
30
0.0
0
VERTEX
100
AcDbVertex
100
AcDb2dVertex
8
Layer01
10
273.097002
20
1.60488
30
0.0
0
VERTEX
100
AcDbVertex
100
AcDb2dVertex
8
Layer01
10
273.503996
20
1.605436
30
0.0
0
VERTEX
100
AcDbVertex
100
AcDb2dVertex
8
Layer01
10
273.910991
20
1.605981
30
0.0
0
VERTEX
100
AcDbVertex
100
AcDb2dVertex
8
Layer01
10
274.317986
20
1.606515
30
0.0
0
VERTEX
100
AcDbVertex
100
AcDb2dVertex
8
Layer01
10
274.724981
20
1.607038
30
0.0
0
VERTEX
100
AcDbVertex
100
AcDb2dVertex
8
Layer01
10
275.131975
20
1.607549
30
0.0
0
VERTEX
100
AcDbVertex
100
AcDb2dVertex
8
Layer01
10
275.53897
20
1.608049
30
0.0
0
VERTEX
100
AcDbVertex
100
AcDb2dVertex
8
Layer01
10
275.945965
20
1.608538
30
0.0
0
VERTEX
100
AcDbVertex
100
AcDb2dVertex
8
Layer01
10
276.35296
20
1.609015
30
0.0
0
VERTEX
100
AcDbVertex
100
AcDb2dVertex
8
Layer01
10
276.759954
20
1.609481
30
0.0
0
VERTEX
100
AcDbVertex
100
AcDb2dVertex
8
Layer01
10
277.166998
20
1.609766
30
0.0
0
VERTEX
100
AcDbVertex
100
AcDb2dVertex
8
Layer01
10
277.573992
20
1.610051
30
0.0
0
VERTEX
100
AcDbVertex
100
AcDb2dVertex
8
Layer01
10
277.980987
20
1.610351
30
0.0
0
VERTEX
100
AcDbVertex
100
AcDb2dVertex
8
Layer01
10
278.387982
20
1.610675
30
0.0
0
VERTEX
100
AcDbVertex
100
AcDb2dVertex
8
Layer01
10
278.794977
20
1.611034
30
0.0
0
VERTEX
100
AcDbVertex
100
AcDb2dVertex
8
Layer01
10
279.201971
20
1.611435
30
0.0
0
VERTEX
100
AcDbVertex
100
AcDb2dVertex
8
Layer01
10
279.608966
20
1.611884
30
0.0
0
VERTEX
100
AcDbVertex
100
AcDb2dVertex
8
Layer01
10
280.015961
20
1.612381
30
0.0
0
VERTEX
100
AcDbVertex
100
AcDb2dVertex
8
Layer01
10
280.422956
20
1.612925
30
0.0
0
VERTEX
100
AcDbVertex
100
AcDb2dVertex
8
Layer01
10
280.829951
20
1.613511
30
0.0
0
VERTEX
100
AcDbVertex
100
AcDb2dVertex
8
Layer01
10
281.236994
20
1.614813
30
0.0
0
VERTEX
100
AcDbVertex
100
AcDb2dVertex
8
Layer01
10
281.643989
20
1.616079
30
0.0
0
VERTEX
100
AcDbVertex
100
AcDb2dVertex
8
Layer01
10
282.050983
20
1.617236
30
0.0
0
VERTEX
100
AcDbVertex
100
AcDb2dVertex
8
Layer01
10
282.457978
20
1.618212
30
0.0
0
VERTEX
100
AcDbVertex
100
AcDb2dVertex
8
Layer01
10
282.864973
20
1.618932
30
0.0
0
VERTEX
100
AcDbVertex
100
AcDb2dVertex
8
Layer01
10
283.271968
20
1.619324
30
0.0
0
VERTEX
100
AcDbVertex
100
AcDb2dVertex
8
Layer01
10
283.678962
20
1.619317
30
0.0
0
VERTEX
100
AcDbVertex
100
AcDb2dVertex
8
Layer01
10
284.085957
20
1.618846
30
0.0
0
VERTEX
100
AcDbVertex
100
AcDb2dVertex
8
Layer01
10
284.492952
20
1.617851
30
0.0
0
VERTEX
100
AcDbVertex
100
AcDb2dVertex
8
Layer01
10
284.899947
20
1.616279
30
0.0
0
VERTEX
100
AcDbVertex
100
AcDb2dVertex
8
Layer01
10
285.30699
20
1.613053
30
0.0
0
VERTEX
100
AcDbVertex
100
AcDb2dVertex
8
Layer01
10
285.713985
20
1.60925
30
0.0
0
VERTEX
100
AcDbVertex
100
AcDb2dVertex
8
Layer01
10
286.120979
20
1.604922
30
0.0
0
VERTEX
100
AcDbVertex
100
AcDb2dVertex
8
Layer01
10
286.527974
20
1.60013
30
0.0
0
VERTEX
100
AcDbVertex
100
AcDb2dVertex
8
Layer01
10
286.934969
20
1.59494
30
0.0
0
VERTEX
100
AcDbVertex
100
AcDb2dVertex
8
Layer01
10
287.341964
20
1.589422
30
0.0
0
VERTEX
100
AcDbVertex
100
AcDb2dVertex
8
Layer01
10
287.748958
20
1.583648
30
0.0
0
VERTEX
100
AcDbVertex
100
AcDb2dVertex
8
Layer01
10
288.155953
20
1.577692
30
0.0
0
VERTEX
100
AcDbVertex
100
AcDb2dVertex
8
Layer01
10
288.562948
20
1.571628
30
0.0
0
VERTEX
100
AcDbVertex
100
AcDb2dVertex
8
Layer01
10
288.969943
20
1.565526
30
0.0
0
VERTEX
100
AcDbVertex
100
AcDb2dVertex
8
Layer01
10
289.376986
20
1.560143
30
0.0
0
VERTEX
100
AcDbVertex
100
AcDb2dVertex
8
Layer01
10
289.783981
20
1.554801
30
0.0
0
VERTEX
100
AcDbVertex
100
AcDb2dVertex
8
Layer01
10
290.190976
20
1.549505
30
0.0
0
VERTEX
100
AcDbVertex
100
AcDb2dVertex
8
Layer01
10
290.59797
20
1.544258
30
0.0
0
VERTEX
100
AcDbVertex
100
AcDb2dVertex
8
Layer01
10
291.004965
20
1.539056
30
0.0
0
VERTEX
100
AcDbVertex
100
AcDb2dVertex
8
Layer01
10
291.41196
20
1.533894
30
0.0
0
VERTEX
100
AcDbVertex
100
AcDb2dVertex
8
Layer01
10
291.818955
20
1.528766
30
0.0
0
VERTEX
100
AcDbVertex
100
AcDb2dVertex
8
Layer01
10
292.225949
20
1.52366
30
0.0
0
VERTEX
100
AcDbVertex
100
AcDb2dVertex
8
Layer01
10
292.632944
20
1.518566
30
0.0
0
VERTEX
100
AcDbVertex
100
AcDb2dVertex
8
Layer01
10
293.039939
20
1.513471
30
0.0
0
VERTEX
100
AcDbVertex
100
AcDb2dVertex
8
Layer01
10
293.447006
20
1.508187
30
0.0
0
VERTEX
100
AcDbVertex
100
AcDb2dVertex
8
Layer01
10
293.854001
20
1.50289
30
0.0
0
VERTEX
100
AcDbVertex
100
AcDb2dVertex
8
Layer01
10
294.260996
20
1.497579
30
0.0
0
VERTEX
100
AcDbVertex
100
AcDb2dVertex
8
Layer01
10
294.667991
20
1.492255
30
0.0
0
VERTEX
100
AcDbVertex
100
AcDb2dVertex
8
Layer01
10
295.074985
20
1.486917
30
0.0
0
VERTEX
100
AcDbVertex
100
AcDb2dVertex
8
Layer01
10
295.48198
20
1.481566
30
0.0
0
VERTEX
100
AcDbVertex
100
AcDb2dVertex
8
Layer01
10
295.888975
20
1.476202
30
0.0
0
VERTEX
100
AcDbVertex
100
AcDb2dVertex
8
Layer01
10
296.29597
20
1.470824
30
0.0
0
VERTEX
100
AcDbVertex
100
AcDb2dVertex
8
Layer01
10
296.702964
20
1.465434
30
0.0
0
VERTEX
100
AcDbVertex
100
AcDb2dVertex
8
Layer01
10
297.109959
20
1.460032
30
0.0
0
VERTEX
100
AcDbVertex
100
AcDb2dVertex
8
Layer01
10
297.517003
20
1.454617
30
0.0
0
VERTEX
100
AcDbVertex
100
AcDb2dVertex
8
Layer01
10
297.923997
20
1.449191
30
0.0
0
VERTEX
100
AcDbVertex
100
AcDb2dVertex
8
Layer01
10
298.330992
20
1.443753
30
0.0
0
VERTEX
100
AcDbVertex
100
AcDb2dVertex
8
Layer01
10
298.737987
20
1.438302
30
0.0
0
VERTEX
100
AcDbVertex
100
AcDb2dVertex
8
Layer01
10
299.144982
20
1.432838
30
0.0
0
VERTEX
100
AcDbVertex
100
AcDb2dVertex
8
Layer01
10
299.551976
20
1.427362
30
0.0
0
VERTEX
100
AcDbVertex
100
AcDb2dVertex
8
Layer01
10
299.958971
20
1.421873
30
0.0
0
VERTEX
100
AcDbVertex
100
AcDb2dVertex
8
Layer01
10
300.365966
20
1.416372
30
0.0
0
VERTEX
100
AcDbVertex
100
AcDb2dVertex
8
Layer01
10
300.772961
20
1.410858
30
0.0
0
VERTEX
100
AcDbVertex
100
AcDb2dVertex
8
Layer01
10
301.179955
20
1.405331
30
0.0
0
VERTEX
100
AcDbVertex
100
AcDb2dVertex
8
Layer01
10
301.586999
20
1.39979
30
0.0
0
VERTEX
100
AcDbVertex
100
AcDb2dVertex
8
Layer01
10
301.993993
20
1.394237
30
0.0
0
VERTEX
100
AcDbVertex
100
AcDb2dVertex
8
Layer01
10
302.400988
20
1.388672
30
0.0
0
VERTEX
100
AcDbVertex
100
AcDb2dVertex
8
Layer01
10
302.807983
20
1.383094
30
0.0
0
VERTEX
100
AcDbVertex
100
AcDb2dVertex
8
Layer01
10
303.214978
20
1.377503
30
0.0
0
VERTEX
100
AcDbVertex
100
AcDb2dVertex
8
Layer01
10
303.621972
20
1.371901
30
0.0
0
VERTEX
100
AcDbVertex
100
AcDb2dVertex
8
Layer01
10
304.028967
20
1.366286
30
0.0
0
VERTEX
100
AcDbVertex
100
AcDb2dVertex
8
Layer01
10
304.435962
20
1.360659
30
0.0
0
VERTEX
100
AcDbVertex
100
AcDb2dVertex
8
Layer01
10
304.842957
20
1.35502
30
0.0
0
VERTEX
100
AcDbVertex
100
AcDb2dVertex
8
Layer01
10
305.249951
20
1.349368
30
0.0
0
VERTEX
100
AcDbVertex
100
AcDb2dVertex
8
Layer01
10
305.656995
20
1.343705
30
0.0
0
VERTEX
100
AcDbVertex
100
AcDb2dVertex
8
Layer01
10
306.06399
20
1.33803
30
0.0
0
VERTEX
100
AcDbVertex
100
AcDb2dVertex
8
Layer01
10
306.470984
20
1.332344
30
0.0
0
VERTEX
100
AcDbVertex
100
AcDb2dVertex
8
Layer01
10
306.877979
20
1.326646
30
0.0
0
VERTEX
100
AcDbVertex
100
AcDb2dVertex
8
Layer01
10
307.284974
20
1.320937
30
0.0
0
VERTEX
100
AcDbVertex
100
AcDb2dVertex
8
Layer01
10
307.691969
20
1.315216
30
0.0
0
VERTEX
100
AcDbVertex
100
AcDb2dVertex
8
Layer01
10
308.098963
20
1.309485
30
0.0
0
VERTEX
100
AcDbVertex
100
AcDb2dVertex
8
Layer01
10
308.505958
20
1.303743
30
0.0
0
VERTEX
100
AcDbVertex
100
AcDb2dVertex
8
Layer01
10
308.912953
20
1.29799
30
0.0
0
VERTEX
100
AcDbVertex
100
AcDb2dVertex
8
Layer01
10
309.319948
20
1.292226
30
0.0
0
VERTEX
100
AcDbVertex
100
AcDb2dVertex
8
Layer01
10
309.726991
20
1.286451
30
0.0
0
VERTEX
100
AcDbVertex
100
AcDb2dVertex
8
Layer01
10
310.133986
20
1.280667
30
0.0
0
VERTEX
100
AcDbVertex
100
AcDb2dVertex
8
Layer01
10
310.54098
20
1.274872
30
0.0
0
VERTEX
100
AcDbVertex
100
AcDb2dVertex
8
Layer01
10
310.947975
20
1.269067
30
0.0
0
VERTEX
100
AcDbVertex
100
AcDb2dVertex
8
Layer01
10
311.35497
20
1.263252
30
0.0
0
VERTEX
100
AcDbVertex
100
AcDb2dVertex
8
Layer01
10
311.761965
20
1.257426
30
0.0
0
VERTEX
100
AcDbVertex
100
AcDb2dVertex
8
Layer01
10
312.168959
20
1.251591
30
0.0
0
VERTEX
100
AcDbVertex
100
AcDb2dVertex
8
Layer01
10
312.575954
20
1.245745
30
0.0
0
VERTEX
100
AcDbVertex
100
AcDb2dVertex
8
Layer01
10
312.982949
20
1.23989
30
0.0
0
VERTEX
100
AcDbVertex
100
AcDb2dVertex
8
Layer01
10
313.389944
20
1.234025
30
0.0
0
VERTEX
100
AcDbVertex
100
AcDb2dVertex
8
Layer01
10
313.796987
20
1.228149
30
0.0
0
VERTEX
100
AcDbVertex
100
AcDb2dVertex
8
Layer01
10
314.203982
20
1.222265
30
0.0
0
VERTEX
100
AcDbVertex
100
AcDb2dVertex
8
Layer01
10
314.610977
20
1.216371
30
0.0
0
VERTEX
100
AcDbVertex
100
AcDb2dVertex
8
Layer01
10
315.017971
20
1.210467
30
0.0
0
VERTEX
100
AcDbVertex
100
AcDb2dVertex
8
Layer01
10
315.424966
20
1.204554
30
0.0
0
VERTEX
100
AcDbVertex
100
AcDb2dVertex
8
Layer01
10
315.831961
20
1.198631
30
0.0
0
VERTEX
100
AcDbVertex
100
AcDb2dVertex
8
Layer01
10
316.238956
20
1.192699
30
0.0
0
VERTEX
100
AcDbVertex
100
AcDb2dVertex
8
Layer01
10
316.64595
20
1.186758
30
0.0
0
VERTEX
100
AcDbVertex
100
AcDb2dVertex
8
Layer01
10
317.052945
20
1.180807
30
0.0
0
VERTEX
100
AcDbVertex
100
AcDb2dVertex
8
Layer01
10
317.45994
20
1.174847
30
0.0
0
VERTEX
100
AcDbVertex
100
AcDb2dVertex
8
Layer01
10
317.866983
20
1.168824
30
0.0
0
VERTEX
100
AcDbVertex
100
AcDb2dVertex
8
Layer01
10
318.273978
20
1.162797
30
0.0
0
VERTEX
100
AcDbVertex
100
AcDb2dVertex
8
Layer01
10
318.680973
20
1.156769
30
0.0
0
VERTEX
100
AcDbVertex
100
AcDb2dVertex
8
Layer01
10
319.087967
20
1.150744
30
0.0
0
VERTEX
100
AcDbVertex
100
AcDb2dVertex
8
Layer01
10
319.494962
20
1.144725
30
0.0
0
VERTEX
100
AcDbVertex
100
AcDb2dVertex
8
Layer01
10
319.901957
20
1.138714
30
0.0
0
VERTEX
100
AcDbVertex
100
AcDb2dVertex
8
Layer01
10
320.308952
20
1.132713
30
0.0
0
VERTEX
100
AcDbVertex
100
AcDb2dVertex
8
Layer01
10
320.715946
20
1.126723
30
0.0
0
VERTEX
100
AcDbVertex
100
AcDb2dVertex
8
Layer01
10
321.122941
20
1.120744
30
0.0
0
VERTEX
100
AcDbVertex
100
AcDb2dVertex
8
Layer01
10
321.529936
20
1.114774
30
0.0
0
VERTEX
100
AcDbVertex
100
AcDb2dVertex
8
Layer01
10
321.937003
20
1.109019
30
0.0
0
VERTEX
100
AcDbVertex
100
AcDb2dVertex
8
Layer01
10
322.343998
20
1.103252
30
0.0
0
VERTEX
100
AcDbVertex
100
AcDb2dVertex
8
Layer01
10
322.750993
20
1.097448
30
0.0
0
VERTEX
100
AcDbVertex
100
AcDb2dVertex
8
Layer01
10
323.157988
20
1.091587
30
0.0
0
VERTEX
100
AcDbVertex
100
AcDb2dVertex
8
Layer01
10
323.564983
20
1.085646
30
0.0
0
VERTEX
100
AcDbVertex
100
AcDb2dVertex
8
Layer01
10
323.971977
20
1.079603
30
0.0
0
VERTEX
100
AcDbVertex
100
AcDb2dVertex
8
Layer01
10
324.378972
20
1.073436
30
0.0
0
VERTEX
100
AcDbVertex
100
AcDb2dVertex
8
Layer01
10
324.785967
20
1.067127
30
0.0
0
VERTEX
100
AcDbVertex
100
AcDb2dVertex
8
Layer01
10
325.192962
20
1.060656
30
0.0
0
VERTEX
100
AcDbVertex
100
AcDb2dVertex
8
Layer01
10
325.599956
20
1.054009
30
0.0
0
VERTEX
100
AcDbVertex
100
AcDb2dVertex
8
Layer01
10
326.007
20
1.046853
30
0.0
0
VERTEX
100
AcDbVertex
100
AcDb2dVertex
8
Layer01
10
326.413994
20
1.039523
30
0.0
0
VERTEX
100
AcDbVertex
100
AcDb2dVertex
8
Layer01
10
326.820989
20
1.032033
30
0.0
0
VERTEX
100
AcDbVertex
100
AcDb2dVertex
8
Layer01
10
327.227984
20
1.024402
30
0.0
0
VERTEX
100
AcDbVertex
100
AcDb2dVertex
8
Layer01
10
327.634979
20
1.016651
30
0.0
0
VERTEX
100
AcDbVertex
100
AcDb2dVertex
8
Layer01
10
328.041973
20
1.008803
30
0.0
0
VERTEX
100
AcDbVertex
100
AcDb2dVertex
8
Layer01
10
328.448968
20
1.000878
30
0.0
0
VERTEX
100
AcDbVertex
100
AcDb2dVertex
8
Layer01
10
328.855963
20
0.992902
30
0.0
0
VERTEX
100
AcDbVertex
100
AcDb2dVertex
8
Layer01
10
329.262958
20
0.984896
30
0.0
0
VERTEX
100
AcDbVertex
100
AcDb2dVertex
8
Layer01
10
329.669952
20
0.976882
30
0.0
0
VERTEX
100
AcDbVertex
100
AcDb2dVertex
8
Layer01
10
330.076996
20
0.969094
30
0.0
0
VERTEX
100
AcDbVertex
100
AcDb2dVertex
8
Layer01
10
330.48399
20
0.961324
30
0.0
0
VERTEX
100
AcDbVertex
100
AcDb2dVertex
8
Layer01
10
330.890985
20
0.953573
30
0.0
0
VERTEX
100
AcDbVertex
100
AcDb2dVertex
8
Layer01
10
331.29798
20
0.945841
30
0.0
0
VERTEX
100
AcDbVertex
100
AcDb2dVertex
8
Layer01
10
331.704975
20
0.938127
30
0.0
0
VERTEX
100
AcDbVertex
100
AcDb2dVertex
8
Layer01
10
332.11197
20
0.93043
30
0.0
0
VERTEX
100
AcDbVertex
100
AcDb2dVertex
8
Layer01
10
332.518964
20
0.922748
30
0.0
0
VERTEX
100
AcDbVertex
100
AcDb2dVertex
8
Layer01
10
332.925959
20
0.915077
30
0.0
0
VERTEX
100
AcDbVertex
100
AcDb2dVertex
8
Layer01
10
333.332954
20
0.907415
30
0.0
0
VERTEX
100
AcDbVertex
100
AcDb2dVertex
8
Layer01
10
333.739949
20
0.899756
30
0.0
0
VERTEX
100
AcDbVertex
100
AcDb2dVertex
8
Layer01
10
334.146992
20
0.892042
30
0.0
0
VERTEX
100
AcDbVertex
100
AcDb2dVertex
8
Layer01
10
334.553987
20
0.88433
30
0.0
0
VERTEX
100
AcDbVertex
100
AcDb2dVertex
8
Layer01
10
334.960981
20
0.876617
30
0.0
0
VERTEX
100
AcDbVertex
100
AcDb2dVertex
8
Layer01
10
335.367976
20
0.868905
30
0.0
0
VERTEX
100
AcDbVertex
100
AcDb2dVertex
8
Layer01
10
335.774971
20
0.861192
30
0.0
0
VERTEX
100
AcDbVertex
100
AcDb2dVertex
8
Layer01
10
336.181966
20
0.85348
30
0.0
0
VERTEX
100
AcDbVertex
100
AcDb2dVertex
8
Layer01
10
336.58896
20
0.845767
30
0.0
0
VERTEX
100
AcDbVertex
100
AcDb2dVertex
8
Layer01
10
336.995955
20
0.838055
30
0.0
0
VERTEX
100
AcDbVertex
100
AcDb2dVertex
8
Layer01
10
337.40295
20
0.830342
30
0.0
0
VERTEX
100
AcDbVertex
100
AcDb2dVertex
8
Layer01
10
337.809945
20
0.822629
30
0.0
0
VERTEX
100
AcDbVertex
100
AcDb2dVertex
8
Layer01
10
338.216988
20
0.814916
30
0.0
0
VERTEX
100
AcDbVertex
100
AcDb2dVertex
8
Layer01
10
338.623983
20
0.807203
30
0.0
0
VERTEX
100
AcDbVertex
100
AcDb2dVertex
8
Layer01
10
339.030977
20
0.799491
30
0.0
0
VERTEX
100
AcDbVertex
100
AcDb2dVertex
8
Layer01
10
339.437972
20
0.791778
30
0.0
0
VERTEX
100
AcDbVertex
100
AcDb2dVertex
8
Layer01
10
339.844967
20
0.784066
30
0.0
0
VERTEX
100
AcDbVertex
100
AcDb2dVertex
8
Layer01
10
340.251962
20
0.776353
30
0.0
0
VERTEX
100
AcDbVertex
100
AcDb2dVertex
8
Layer01
10
340.658957
20
0.768641
30
0.0
0
VERTEX
100
AcDbVertex
100
AcDb2dVertex
8
Layer01
10
341.065951
20
0.760928
30
0.0
0
VERTEX
100
AcDbVertex
100
AcDb2dVertex
8
Layer01
10
341.472946
20
0.753216
30
0.0
0
VERTEX
100
AcDbVertex
100
AcDb2dVertex
8
Layer01
10
341.879941
20
0.745503
30
0.0
0
VERTEX
100
AcDbVertex
100
AcDb2dVertex
8
Layer01
10
342.286984
20
0.737789
30
0.0
0
VERTEX
100
AcDbVertex
100
AcDb2dVertex
8
Layer01
10
342.693979
20
0.730077
30
0.0
0
VERTEX
100
AcDbVertex
100
AcDb2dVertex
8
Layer01
10
343.100974
20
0.722364
30
0.0
0
VERTEX
100
AcDbVertex
100
AcDb2dVertex
8
Layer01
10
343.507968
20
0.714651
30
0.0
0
VERTEX
100
AcDbVertex
100
AcDb2dVertex
8
Layer01
10
343.914963
20
0.706939
30
0.0
0
VERTEX
100
AcDbVertex
100
AcDb2dVertex
8
Layer01
10
344.321958
20
0.699226
30
0.0
0
VERTEX
100
AcDbVertex
100
AcDb2dVertex
8
Layer01
10
344.728953
20
0.691514
30
0.0
0
VERTEX
100
AcDbVertex
100
AcDb2dVertex
8
Layer01
10
345.135947
20
0.683801
30
0.0
0
VERTEX
100
AcDbVertex
100
AcDb2dVertex
8
Layer01
10
345.542942
20
0.676089
30
0.0
0
VERTEX
100
AcDbVertex
100
AcDb2dVertex
8
Layer01
10
345.949937
20
0.668377
30
0.0
0
VERTEX
100
AcDbVertex
100
AcDb2dVertex
8
Layer01
10
346.357004
20
0.660664
30
0.0
0
VERTEX
100
AcDbVertex
100
AcDb2dVertex
8
Layer01
10
346.763999
20
0.652952
30
0.0
0
VERTEX
100
AcDbVertex
100
AcDb2dVertex
8
Layer01
10
347.170994
20
0.64524
30
0.0
0
VERTEX
100
AcDbVertex
100
AcDb2dVertex
8
Layer01
10
347.577989
20
0.637528
30
0.0
0
VERTEX
100
AcDbVertex
100
AcDb2dVertex
8
Layer01
10
347.984984
20
0.629816
30
0.0
0
VERTEX
100
AcDbVertex
100
AcDb2dVertex
8
Layer01
10
348.391978
20
0.622104
30
0.0
0
VERTEX
100
AcDbVertex
100
AcDb2dVertex
8
Layer01
10
348.798973
20
0.614391
30
0.0
0
VERTEX
100
AcDbVertex
100
AcDb2dVertex
8
Layer01
10
349.205968
20
0.606677
30
0.0
0
VERTEX
100
AcDbVertex
100
AcDb2dVertex
8
Layer01
10
349.612963
20
0.598964
30
0.0
0
VERTEX
100
AcDbVertex
100
AcDb2dVertex
8
Layer01
10
350.019957
20
0.59125
30
0.0
0
VERTEX
100
AcDbVertex
100
AcDb2dVertex
8
Layer01
10
350.427001
20
0.583533
30
0.0
0
VERTEX
100
AcDbVertex
100
AcDb2dVertex
8
Layer01
10
350.833995
20
0.575816
30
0.0
0
VERTEX
100
AcDbVertex
100
AcDb2dVertex
8
Layer01
10
351.24099
20
0.5681
30
0.0
0
VERTEX
100
AcDbVertex
100
AcDb2dVertex
8
Layer01
10
351.647985
20
0.560383
30
0.0
0
VERTEX
100
AcDbVertex
100
AcDb2dVertex
8
Layer01
10
352.05498
20
0.552666
30
0.0
0
VERTEX
100
AcDbVertex
100
AcDb2dVertex
8
Layer01
10
352.461974
20
0.544949
30
0.0
0
VERTEX
100
AcDbVertex
100
AcDb2dVertex
8
Layer01
10
352.868969
20
0.537232
30
0.0
0
VERTEX
100
AcDbVertex
100
AcDb2dVertex
8
Layer01
10
353.275964
20
0.529515
30
0.0
0
VERTEX
100
AcDbVertex
100
AcDb2dVertex
8
Layer01
10
353.682959
20
0.521799
30
0.0
0
VERTEX
100
AcDbVertex
100
AcDb2dVertex
8
Layer01
10
354.089953
20
0.514083
30
0.0
0
VERTEX
100
AcDbVertex
100
AcDb2dVertex
8
Layer01
10
354.496997
20
0.506368
30
0.0
0
VERTEX
100
AcDbVertex
100
AcDb2dVertex
8
Layer01
10
354.903991
20
0.498654
30
0.0
0
VERTEX
100
AcDbVertex
100
AcDb2dVertex
8
Layer01
10
355.310986
20
0.490941
30
0.0
0
VERTEX
100
AcDbVertex
100
AcDb2dVertex
8
Layer01
10
355.717981
20
0.483228
30
0.0
0
VERTEX
100
AcDbVertex
100
AcDb2dVertex
8
Layer01
10
356.124976
20
0.475515
30
0.0
0
VERTEX
100
AcDbVertex
100
AcDb2dVertex
8
Layer01
10
356.531971
20
0.467803
30
0.0
0
VERTEX
100
AcDbVertex
100
AcDb2dVertex
8
Layer01
10
356.938965
20
0.460091
30
0.0
0
VERTEX
100
AcDbVertex
100
AcDb2dVertex
8
Layer01
10
357.34596
20
0.45238
30
0.0
0
VERTEX
100
AcDbVertex
100
AcDb2dVertex
8
Layer01
10
357.752955
20
0.444668
30
0.0
0
VERTEX
100
AcDbVertex
100
AcDb2dVertex
8
Layer01
10
358.15995
20
0.436956
30
0.0
0
VERTEX
100
AcDbVertex
100
AcDb2dVertex
8
Layer01
10
358.566993
20
0.42942
30
0.0
0
VERTEX
100
AcDbVertex
100
AcDb2dVertex
8
Layer01
10
358.973988
20
0.421872
30
0.0
0
VERTEX
100
AcDbVertex
100
AcDb2dVertex
8
Layer01
10
359.380982
20
0.414297
30
0.0
0
VERTEX
100
AcDbVertex
100
AcDb2dVertex
8
Layer01
10
359.787977
20
0.406684
30
0.0
0
VERTEX
100
AcDbVertex
100
AcDb2dVertex
8
Layer01
10
360.194972
20
0.399024
30
0.0
0
VERTEX
100
AcDbVertex
100
AcDb2dVertex
8
Layer01
10
360.601967
20
0.391308
30
0.0
0
VERTEX
100
AcDbVertex
100
AcDb2dVertex
8
Layer01
10
361.008961
20
0.38353
30
0.0
0
VERTEX
100
AcDbVertex
100
AcDb2dVertex
8
Layer01
10
361.415956
20
0.375689
30
0.0
0
VERTEX
100
AcDbVertex
100
AcDb2dVertex
8
Layer01
10
361.822951
20
0.367787
30
0.0
0
VERTEX
100
AcDbVertex
100
AcDb2dVertex
8
Layer01
10
362.229946
20
0.35983
30
0.0
0
VERTEX
100
AcDbVertex
100
AcDb2dVertex
8
Layer01
10
362.636989
20
0.351134
30
0.0
0
VERTEX
100
AcDbVertex
100
AcDb2dVertex
8
Layer01
10
363.043984
20
0.342462
30
0.0
0
VERTEX
100
AcDbVertex
100
AcDb2dVertex
8
Layer01
10
363.450978
20
0.333888
30
0.0
0
VERTEX
100
AcDbVertex
100
AcDb2dVertex
8
Layer01
10
363.857973
20
0.325483
30
0.0
0
VERTEX
100
AcDbVertex
100
AcDb2dVertex
8
Layer01
10
364.264968
20
0.317325
30
0.0
0
VERTEX
100
AcDbVertex
100
AcDb2dVertex
8
Layer01
10
364.671963
20
0.309487
30
0.0
0
VERTEX
100
AcDbVertex
100
AcDb2dVertex
8
Layer01
10
365.078957
20
0.302041
30
0.0
0
VERTEX
100
AcDbVertex
100
AcDb2dVertex
8
Layer01
10
365.485952
20
0.295054
30
0.0
0
VERTEX
100
AcDbVertex
100
AcDb2dVertex
8
Layer01
10
365.892947
20
0.28859
30
0.0
0
VERTEX
100
AcDbVertex
100
AcDb2dVertex
8
Layer01
10
366.299942
20
0.282703
30
0.0
0
VERTEX
100
AcDbVertex
100
AcDb2dVertex
8
Layer01
10
366.706985
20
0.278452
30
0.0
0
VERTEX
100
AcDbVertex
100
AcDb2dVertex
8
Layer01
10
367.11398
20
0.274785
30
0.0
0
VERTEX
100
AcDbVertex
100
AcDb2dVertex
8
Layer01
10
367.520975
20
0.271652
30
0.0
0
VERTEX
100
AcDbVertex
100
AcDb2dVertex
8
Layer01
10
367.927969
20
0.268997
30
0.0
0
VERTEX
100
AcDbVertex
100
AcDb2dVertex
8
Layer01
10
368.334964
20
0.266758
30
0.0
0
VERTEX
100
AcDbVertex
100
AcDb2dVertex
8
Layer01
10
368.741959
20
0.264869
30
0.0
0
VERTEX
100
AcDbVertex
100
AcDb2dVertex
8
Layer01
10
369.148954
20
0.263261
30
0.0
0
VERTEX
100
AcDbVertex
100
AcDb2dVertex
8
Layer01
10
369.555948
20
0.261863
30
0.0
0
VERTEX
100
AcDbVertex
100
AcDb2dVertex
8
Layer01
10
369.962943
20
0.260606
30
0.0
0
VERTEX
100
AcDbVertex
100
AcDb2dVertex
8
Layer01
10
370.369938
20
0.259422
30
0.0
0
VERTEX
100
AcDbVertex
100
AcDb2dVertex
8
Layer01
10
370.777005
20
0.257597
30
0.0
0
VERTEX
100
AcDbVertex
100
AcDb2dVertex
8
Layer01
10
371.184
20
0.255768
30
0.0
0
VERTEX
100
AcDbVertex
100
AcDb2dVertex
8
Layer01
10
371.590995
20
0.253928
30
0.0
0
VERTEX
100
AcDbVertex
100
AcDb2dVertex
8
Layer01
10
371.99799
20
0.252074
30
0.0
0
VERTEX
100
AcDbVertex
100
AcDb2dVertex
8
Layer01
10
372.404984
20
0.250207
30
0.0
0
VERTEX
100
AcDbVertex
100
AcDb2dVertex
8
Layer01
10
372.811979
20
0.24833
30
0.0
0
VERTEX
100
AcDbVertex
100
AcDb2dVertex
8
Layer01
10
373.218974
20
0.246449
30
0.0
0
VERTEX
100
AcDbVertex
100
AcDb2dVertex
8
Layer01
10
373.625969
20
0.24457
30
0.0
0
VERTEX
100
AcDbVertex
100
AcDb2dVertex
8
Layer01
10
374.032964
20
0.242705
30
0.0
0
VERTEX
100
AcDbVertex
100
AcDb2dVertex
8
Layer01
10
374.439958
20
0.240863
30
0.0
0
VERTEX
100
AcDbVertex
100
AcDb2dVertex
8
Layer01
10
374.847002
20
0.2392
30
0.0
0
VERTEX
100
AcDbVertex
100
AcDb2dVertex
8
Layer01
10
375.253996
20
0.237572
30
0.0
0
VERTEX
100
AcDbVertex
100
AcDb2dVertex
8
Layer01
10
375.660991
20
0.23598
30
0.0
0
VERTEX
100
AcDbVertex
100
AcDb2dVertex
8
Layer01
10
376.067986
20
0.234425
30
0.0
0
VERTEX
100
AcDbVertex
100
AcDb2dVertex
8
Layer01
10
376.474981
20
0.232907
30
0.0
0
VERTEX
100
AcDbVertex
100
AcDb2dVertex
8
Layer01
10
376.881975
20
0.231428
30
0.0
0
VERTEX
100
AcDbVertex
100
AcDb2dVertex
8
Layer01
10
377.28897
20
0.229989
30
0.0
0
VERTEX
100
AcDbVertex
100
AcDb2dVertex
8
Layer01
10
377.695965
20
0.228592
30
0.0
0
VERTEX
100
AcDbVertex
100
AcDb2dVertex
8
Layer01
10
378.10296
20
0.227237
30
0.0
0
VERTEX
100
AcDbVertex
100
AcDb2dVertex
8
Layer01
10
378.509954
20
0.225926
30
0.0
0
VERTEX
100
AcDbVertex
100
AcDb2dVertex
8
Layer01
10
378.916998
20
0.225155
30
0.0
0
VERTEX
100
AcDbVertex
100
AcDb2dVertex
8
Layer01
10
379.323992
20
0.224394
30
0.0
0
VERTEX
100
AcDbVertex
100
AcDb2dVertex
8
Layer01
10
379.730987
20
0.223608
30
0.0
0
VERTEX
100
AcDbVertex
100
AcDb2dVertex
8
Layer01
10
380.137982
20
0.222767
30
0.0
0
VERTEX
100
AcDbVertex
100
AcDb2dVertex
8
Layer01
10
380.544977
20
0.221844
30
0.0
0
VERTEX
100
AcDbVertex
100
AcDb2dVertex
8
Layer01
10
380.951971
20
0.220817
30
0.0
0
VERTEX
100
AcDbVertex
100
AcDb2dVertex
8
Layer01
10
381.358966
20
0.219673
30
0.0
0
VERTEX
100
AcDbVertex
100
AcDb2dVertex
8
Layer01
10
381.765961
20
0.218407
30
0.0
0
VERTEX
100
AcDbVertex
100
AcDb2dVertex
8
Layer01
10
382.172956
20
0.217026
30
0.0
0
VERTEX
100
AcDbVertex
100
AcDb2dVertex
8
Layer01
10
382.579951
20
0.215547
30
0.0
0
VERTEX
100
AcDbVertex
100
AcDb2dVertex
8
Layer01
10
382.986994
20
0.212051
30
0.0
0
VERTEX
100
AcDbVertex
100
AcDb2dVertex
8
Layer01
10
383.393989
20
0.20868
30
0.0
0
VERTEX
100
AcDbVertex
100
AcDb2dVertex
8
Layer01
10
383.800983
20
0.205637
30
0.0
0
VERTEX
100
AcDbVertex
100
AcDb2dVertex
8
Layer01
10
384.207978
20
0.203132
30
0.0
0
VERTEX
100
AcDbVertex
100
AcDb2dVertex
8
Layer01
10
384.614973
20
0.201374
30
0.0
0
VERTEX
100
AcDbVertex
100
AcDb2dVertex
8
Layer01
10
385.021968
20
0.200571
30
0.0
0
VERTEX
100
AcDbVertex
100
AcDb2dVertex
8
Layer01
10
385.428962
20
0.200923
30
0.0
0
VERTEX
100
AcDbVertex
100
AcDb2dVertex
8
Layer01
10
385.835957
20
0.202618
30
0.0
0
VERTEX
100
AcDbVertex
100
AcDb2dVertex
8
Layer01
10
386.242952
20
0.205827
30
0.0
0
VERTEX
100
AcDbVertex
100
AcDb2dVertex
8
Layer01
10
386.649947
20
0.210703
30
0.0
0
VERTEX
100
AcDbVertex
100
AcDb2dVertex
8
Layer01
10
387.05699
20
0.220297
30
0.0
0
VERTEX
100
AcDbVertex
100
AcDb2dVertex
8
Layer01
10
387.463985
20
0.231558
30
0.0
0
VERTEX
100
AcDbVertex
100
AcDb2dVertex
8
Layer01
10
387.870979
20
0.244339
30
0.0
0
VERTEX
100
AcDbVertex
100
AcDb2dVertex
8
Layer01
10
388.277974
20
0.258471
30
0.0
0
VERTEX
100
AcDbVertex
100
AcDb2dVertex
8
Layer01
10
388.684969
20
0.273767
30
0.0
0
VERTEX
100
AcDbVertex
100
AcDb2dVertex
8
Layer01
10
389.091964
20
0.290031
30
0.0
0
VERTEX
100
AcDbVertex
100
AcDb2dVertex
8
Layer01
10
389.498958
20
0.307056
30
0.0
0
VERTEX
100
AcDbVertex
100
AcDb2dVertex
8
Layer01
10
389.905953
20
0.324637
30
0.0
0
VERTEX
100
AcDbVertex
100
AcDb2dVertex
8
Layer01
10
390.312948
20
0.342565
30
0.0
0
VERTEX
100
AcDbVertex
100
AcDb2dVertex
8
Layer01
10
390.719943
20
0.36064
30
0.0
0
VERTEX
100
AcDbVertex
100
AcDb2dVertex
8
Layer01
10
391.126986
20
0.376725
30
0.0
0
VERTEX
100
AcDbVertex
100
AcDb2dVertex
8
Layer01
10
391.533981
20
0.392737
30
0.0
0
VERTEX
100
AcDbVertex
100
AcDb2dVertex
8
Layer01
10
391.940976
20
0.408662
30
0.0
0
VERTEX
100
AcDbVertex
100
AcDb2dVertex
8
Layer01
10
392.34797
20
0.424498
30
0.0
0
VERTEX
100
AcDbVertex
100
AcDb2dVertex
8
Layer01
10
392.754965
20
0.440251
30
0.0
0
VERTEX
100
AcDbVertex
100
AcDb2dVertex
8
Layer01
10
393.16196
20
0.455937
30
0.0
0
VERTEX
100
AcDbVertex
100
AcDb2dVertex
8
Layer01
10
393.568955
20
0.471579
30
0.0
0
VERTEX
100
AcDbVertex
100
AcDb2dVertex
8
Layer01
10
393.975949
20
0.487207
30
0.0
0
VERTEX
100
AcDbVertex
100
AcDb2dVertex
8
Layer01
10
394.382944
20
0.502853
30
0.0
0
VERTEX
100
AcDbVertex
100
AcDb2dVertex
8
Layer01
10
394.789939
20
0.518556
30
0.0
0
VERTEX
100
AcDbVertex
100
AcDb2dVertex
8
Layer01
10
399.267003
20
0.704255
30
0.0
0
VERTEX
100
AcDbVertex
100
AcDb2dVertex
8
Layer01
10
399.673997
20
0.722848
30
0.0
0
VERTEX
100
AcDbVertex
100
AcDb2dVertex
8
Layer01
10
400.080992
20
0.741575
30
0.0
0
VERTEX
100
AcDbVertex
100
AcDb2dVertex
8
Layer01
10
400.487987
20
0.76033
30
0.0
0
VERTEX
100
AcDbVertex
100
AcDb2dVertex
8
Layer01
10
400.894982
20
0.778983
30
0.0
0
VERTEX
100
AcDbVertex
100
AcDb2dVertex
8
Layer01
10
401.301976
20
0.797375
30
0.0
0
VERTEX
100
AcDbVertex
100
AcDb2dVertex
8
Layer01
10
401.708971
20
0.815316
30
0.0
0
VERTEX
100
AcDbVertex
100
AcDb2dVertex
8
Layer01
10
402.115966
20
0.832587
30
0.0
0
VERTEX
100
AcDbVertex
100
AcDb2dVertex
8
Layer01
10
402.522961
20
0.848931
30
0.0
0
VERTEX
100
AcDbVertex
100
AcDb2dVertex
8
Layer01
10
402.929955
20
0.864059
30
0.0
0
VERTEX
100
AcDbVertex
100
AcDb2dVertex
8
Layer01
10
403.336999
20
0.877643
30
0.0
0
VERTEX
100
AcDbVertex
100
AcDb2dVertex
8
Layer01
10
403.743993
20
0.889311
30
0.0
0
VERTEX
100
AcDbVertex
100
AcDb2dVertex
8
Layer01
10
404.150988
20
0.898654
30
0.0
0
VERTEX
100
AcDbVertex
100
AcDb2dVertex
8
Layer01
10
404.557983
20
0.905217
30
0.0
0
VERTEX
100
AcDbVertex
100
AcDb2dVertex
8
Layer01
10
404.964978
20
0.908499
30
0.0
0
VERTEX
100
AcDbVertex
100
AcDb2dVertex
8
Layer01
10
405.371972
20
0.907951
30
0.0
0
VERTEX
100
AcDbVertex
100
AcDb2dVertex
8
Layer01
10
405.778967
20
0.902976
30
0.0
0
VERTEX
100
AcDbVertex
100
AcDb2dVertex
8
Layer01
10
406.185962
20
0.892922
30
0.0
0
VERTEX
100
AcDbVertex
100
AcDb2dVertex
8
Layer01
10
406.592957
20
0.877084
30
0.0
0
VERTEX
100
AcDbVertex
100
AcDb2dVertex
8
Layer01
10
406.999951
20
0.854703
30
0.0
0
VERTEX
100
AcDbVertex
100
AcDb2dVertex
8
Layer01
10
407.0
20
0.8547
30
0.0
0
SEQEND
0
POLYLINE
5
 502
100
AcDbEntity
8
AXIS
66
 1
100
AcDb2dPolyline
70
 0
0
VERTEX
100
AcDbVertex
100
AcDb2dVertex
8
AXIS
10
0.0
20
0.0
30
0.0
0
VERTEX
100
AcDbVertex
100
AcDb2dVertex
8
AXIS
10
407.0
20
0.0
30
0.0
0
SEQEND
0
POLYLINE
5
 503
100
AcDbEntity
8
COFFR
66
 1
100
AcDb2dPolyline
70
 0
0
VERTEX
100
AcDbVertex
100
AcDb2dVertex
8
COFFR
10
19.999986
20
40.162764
30
0.0
0
VERTEX
100
AcDbVertex
100
AcDb2dVertex
8
COFFR
10
19.999986
20
3.163572
30
0.0
0
SEQEND
0
POLYLINE
5
 503
100
AcDbEntity
8
COFFR
66
 1
100
AcDb2dPolyline
70
 0
0
VERTEX
100
AcDbVertex
100
AcDb2dVertex
8
COFFR
10
407.0
20
0.0
30
0.0
0
VERTEX
100
AcDbVertex
100
AcDb2dVertex
8
COFFR
10
407.0
20
0.0
30
0.0
0
SEQEND
0
POLYLINE
5
 503
100
AcDbEntity
8
COFFR
66
 1
100
AcDb2dPolyline
70
 0
0
VERTEX
100
AcDbVertex
100
AcDb2dVertex
8
COFFR
10
393.850456
20
3.781656
30
0.0
0
VERTEX
100
AcDbVertex
100
AcDb2dVertex
8
COFFR
10
392.833026
20
3.96643
30
0.0
0
VERTEX
100
AcDbVertex
100
AcDb2dVertex
8
COFFR
10
391.815138
20
4.150273
30
0.0
0
VERTEX
100
AcDbVertex
100
AcDb2dVertex
8
COFFR
10
390.797118
20
4.332881
30
0.0
0
VERTEX
100
AcDbVertex
100
AcDb2dVertex
8
COFFR
10
389.77457
20
4.503422
30
0.0
0
VERTEX
100
AcDbVertex
100
AcDb2dVertex
8
COFFR
10
388.759985
20
4.681064
30
0.0
0
VERTEX
100
AcDbVertex
100
AcDb2dVertex
8
COFFR
10
387.749202
20
4.874719
30
0.0
0
VERTEX
100
AcDbVertex
100
AcDb2dVertex
8
COFFR
10
386.740881
20
5.090207
30
0.0
0
VERTEX
100
AcDbVertex
100
AcDb2dVertex
8
COFFR
10
385.743002
20
5.352575
30
0.0
0
VERTEX
100
AcDbVertex
100
AcDb2dVertex
8
COFFR
10
384.734622
20
5.636245
30
0.0
0
VERTEX
100
AcDbVertex
100
AcDb2dVertex
8
COFFR
10
383.723719
20
5.935469
30
0.0
0
VERTEX
100
AcDbVertex
100
AcDb2dVertex
8
COFFR
10
382.708965
20
6.241048
30
0.0
0
VERTEX
100
AcDbVertex
100
AcDb2dVertex
8
COFFR
10
381.686187
20
6.533779
30
0.0
0
VERTEX
100
AcDbVertex
100
AcDb2dVertex
8
COFFR
10
380.667889
20
6.824809
30
0.0
0
VERTEX
100
AcDbVertex
100
AcDb2dVertex
8
COFFR
10
379.64964
20
7.114065
30
0.0
0
VERTEX
100
AcDbVertex
100
AcDb2dVertex
8
COFFR
10
378.631816
20
7.402571
30
0.0
0
VERTEX
100
AcDbVertex
100
AcDb2dVertex
8
COFFR
10
377.615776
20
7.69461
30
0.0
0
VERTEX
100
AcDbVertex
100
AcDb2dVertex
8
COFFR
10
376.598468
20
7.987051
30
0.0
0
VERTEX
100
AcDbVertex
100
AcDb2dVertex
8
COFFR
10
375.581172
20
8.279977
30
0.0
0
VERTEX
100
AcDbVertex
100
AcDb2dVertex
8
COFFR
10
374.563826
20
8.573266
30
0.0
0
VERTEX
100
AcDbVertex
100
AcDb2dVertex
8
COFFR
10
373.546535
20
8.867052
30
0.0
0
VERTEX
100
AcDbVertex
100
AcDb2dVertex
8
COFFR
10
372.529137
20
9.161076
30
0.0
0
VERTEX
100
AcDbVertex
100
AcDb2dVertex
8
COFFR
10
371.511736
20
9.455334
30
0.0
0
VERTEX
100
AcDbVertex
100
AcDb2dVertex
8
COFFR
10
370.49429
20
9.749717
30
0.0
0
VERTEX
100
AcDbVertex
100
AcDb2dVertex
8
COFFR
10
369.476723
20
10.043937
30
0.0
0
VERTEX
100
AcDbVertex
100
AcDb2dVertex
8
COFFR
10
368.459353
20
10.338474
30
0.0
0
VERTEX
100
AcDbVertex
100
AcDb2dVertex
8
COFFR
10
367.442109
20
10.633623
30
0.0
0
VERTEX
100
AcDbVertex
100
AcDb2dVertex
8
COFFR
10
366.424904
20
10.929472
30
0.0
0
VERTEX
100
AcDbVertex
100
AcDb2dVertex
8
COFFR
10
365.408032
20
11.226824
30
0.0
0
VERTEX
100
AcDbVertex
100
AcDb2dVertex
8
COFFR
10
364.390806
20
11.524809
30
0.0
0
VERTEX
100
AcDbVertex
100
AcDb2dVertex
8
COFFR
10
363.373507
20
11.823268
30
0.0
0
VERTEX
100
AcDbVertex
100
AcDb2dVertex
8
COFFR
10
362.356071
20
12.121874
30
0.0
0
VERTEX
100
AcDbVertex
100
AcDb2dVertex
8
COFFR
10
361.338399
20
12.420062
30
0.0
0
VERTEX
100
AcDbVertex
100
AcDb2dVertex
8
COFFR
10
360.320839
20
12.718112
30
0.0
0
VERTEX
100
AcDbVertex
100
AcDb2dVertex
8
COFFR
10
359.303282
20
13.016027
30
0.0
0
VERTEX
100
AcDbVertex
100
AcDb2dVertex
8
COFFR
10
358.285721
20
13.313798
30
0.0
0
VERTEX
100
AcDbVertex
100
AcDb2dVertex
8
COFFR
10
357.268223
20
13.611576
30
0.0
0
VERTEX
100
AcDbVertex
100
AcDb2dVertex
8
COFFR
10
356.250665
20
13.909213
30
0.0
0
VERTEX
100
AcDbVertex
100
AcDb2dVertex
8
COFFR
10
355.23311
20
14.206721
30
0.0
0
VERTEX
100
AcDbVertex
100
AcDb2dVertex
8
COFFR
10
354.215539
20
14.504061
30
0.0
0
VERTEX
100
AcDbVertex
100
AcDb2dVertex
8
COFFR
10
353.19798
20
14.80126
30
0.0
0
VERTEX
100
AcDbVertex
100
AcDb2dVertex
8
COFFR
10
352.180399
20
15.098266
30
0.0
0
VERTEX
100
AcDbVertex
100
AcDb2dVertex
8
COFFR
10
351.162824
20
15.395096
30
0.0
0
VERTEX
100
AcDbVertex
100
AcDb2dVertex
8
COFFR
10
350.145235
20
15.691714
30
0.0
0
VERTEX
100
AcDbVertex
100
AcDb2dVertex
8
COFFR
10
349.127659
20
15.988152
30
0.0
0
VERTEX
100
AcDbVertex
100
AcDb2dVertex
8
COFFR
10
348.110064
20
16.284364
30
0.0
0
VERTEX
100
AcDbVertex
100
AcDb2dVertex
8
COFFR
10
347.092478
20
16.580374
30
0.0
0
VERTEX
100
AcDbVertex
100
AcDb2dVertex
8
COFFR
10
346.07488
20
16.876149
30
0.0
0
VERTEX
100
AcDbVertex
100
AcDb2dVertex
8
COFFR
10
345.057299
20
17.171734
30
0.0
0
VERTEX
100
AcDbVertex
100
AcDb2dVertex
8
COFFR
10
344.039697
20
17.467076
30
0.0
0
VERTEX
100
AcDbVertex
100
AcDb2dVertex
8
COFFR
10
343.022106
20
17.762204
30
0.0
0
VERTEX
100
AcDbVertex
100
AcDb2dVertex
8
COFFR
10
342.004502
20
18.057084
30
0.0
0
VERTEX
100
AcDbVertex
100
AcDb2dVertex
8
COFFR
10
340.986915
20
18.351758
30
0.0
0
VERTEX
100
AcDbVertex
100
AcDb2dVertex
8
COFFR
10
339.969312
20
18.646188
30
0.0
0
VERTEX
100
AcDbVertex
100
AcDb2dVertex
8
COFFR
10
338.951716
20
18.940391
30
0.0
0
VERTEX
100
AcDbVertex
100
AcDb2dVertex
8
COFFR
10
337.934118
20
19.234362
30
0.0
0
VERTEX
100
AcDbVertex
100
AcDb2dVertex
8
COFFR
10
336.916532
20
19.528128
30
0.0
0
VERTEX
100
AcDbVertex
100
AcDb2dVertex
8
COFFR
10
335.898935
20
19.821665
30
0.0
0
VERTEX
100
AcDbVertex
100
AcDb2dVertex
8
COFFR
10
334.881345
20
20.11499
30
0.0
0
VERTEX
100
AcDbVertex
100
AcDb2dVertex
8
COFFR
10
333.863752
20
20.408093
30
0.0
0
VERTEX
100
AcDbVertex
100
AcDb2dVertex
8
COFFR
10
332.845933
20
20.700431
30
0.0
0
VERTEX
100
AcDbVertex
100
AcDb2dVertex
8
COFFR
10
331.828453
20
20.992831
30
0.0
0
VERTEX
100
AcDbVertex
100
AcDb2dVertex
8
COFFR
10
330.811079
20
21.285534
30
0.0
0
VERTEX
100
AcDbVertex
100
AcDb2dVertex
8
COFFR
10
329.793707
20
21.57854
30
0.0
0
VERTEX
100
AcDbVertex
100
AcDb2dVertex
8
COFFR
10
328.777249
20
21.874053
30
0.0
0
VERTEX
100
AcDbVertex
100
AcDb2dVertex
8
COFFR
10
327.759195
20
22.168187
30
0.0
0
VERTEX
100
AcDbVertex
100
AcDb2dVertex
8
COFFR
10
326.74041
20
22.459245
30
0.0
0
VERTEX
100
AcDbVertex
100
AcDb2dVertex
8
COFFR
10
325.721117
20
22.746036
30
0.0
0
VERTEX
100
AcDbVertex
100
AcDb2dVertex
8
COFFR
10
324.699795
20
23.023689
30
0.0
0
VERTEX
100
AcDbVertex
100
AcDb2dVertex
8
COFFR
10
323.680506
20
23.297185
30
0.0
0
VERTEX
100
AcDbVertex
100
AcDb2dVertex
8
COFFR
10
322.66173
20
23.567678
30
0.0
0
VERTEX
100
AcDbVertex
100
AcDb2dVertex
8
COFFR
10
321.643686
20
23.836911
30
0.0
0
VERTEX
100
AcDbVertex
100
AcDb2dVertex
8
COFFR
10
320.627245
20
24.108715
30
0.0
0
VERTEX
100
AcDbVertex
100
AcDb2dVertex
8
COFFR
10
319.609889
20
24.380826
30
0.0
0
VERTEX
100
AcDbVertex
100
AcDb2dVertex
8
COFFR
10
318.59254
20
24.653293
30
0.0
0
VERTEX
100
AcDbVertex
100
AcDb2dVertex
8
COFFR
10
317.57508
20
24.925851
30
0.0
0
VERTEX
100
AcDbVertex
100
AcDb2dVertex
8
COFFR
10
316.557292
20
25.197715
30
0.0
0
VERTEX
100
AcDbVertex
100
AcDb2dVertex
8
COFFR
10
315.539723
20
25.469422
30
0.0
0
VERTEX
100
AcDbVertex
100
AcDb2dVertex
8
COFFR
10
314.522158
20
25.740977
30
0.0
0
VERTEX
100
AcDbVertex
100
AcDb2dVertex
8
COFFR
10
313.504588
20
26.012365
30
0.0
0
VERTEX
100
AcDbVertex
100
AcDb2dVertex
8
COFFR
10
312.487025
20
26.283604
30
0.0
0
VERTEX
100
AcDbVertex
100
AcDb2dVertex
8
COFFR
10
311.469453
20
26.554671
30
0.0
0
VERTEX
100
AcDbVertex
100
AcDb2dVertex
8
COFFR
10
310.451886
20
26.82558
30
0.0
0
VERTEX
100
AcDbVertex
100
AcDb2dVertex
8
COFFR
10
309.434313
20
27.096317
30
0.0
0
VERTEX
100
AcDbVertex
100
AcDb2dVertex
8
COFFR
10
308.416753
20
27.366912
30
0.0
0
VERTEX
100
AcDbVertex
100
AcDb2dVertex
8
COFFR
10
307.399179
20
27.63733
30
0.0
0
VERTEX
100
AcDbVertex
100
AcDb2dVertex
8
COFFR
10
306.381611
20
27.907587
30
0.0
0
VERTEX
100
AcDbVertex
100
AcDb2dVertex
8
COFFR
10
305.364034
20
28.177663
30
0.0
0
VERTEX
100
AcDbVertex
100
AcDb2dVertex
8
COFFR
10
304.346468
20
28.447584
30
0.0
0
VERTEX
100
AcDbVertex
100
AcDb2dVertex
8
COFFR
10
303.328891
20
28.71732
30
0.0
0
VERTEX
100
AcDbVertex
100
AcDb2dVertex
8
COFFR
10
302.311322
20
28.986893
30
0.0
0
VERTEX
100
AcDbVertex
100
AcDb2dVertex
8
COFFR
10
301.293745
20
29.256283
30
0.0
0
VERTEX
100
AcDbVertex
100
AcDb2dVertex
8
COFFR
10
300.276184
20
29.525529
30
0.0
0
VERTEX
100
AcDbVertex
100
AcDb2dVertex
8
COFFR
10
299.258605
20
29.794587
30
0.0
0
VERTEX
100
AcDbVertex
100
AcDb2dVertex
8
COFFR
10
298.241034
20
30.063479
30
0.0
0
VERTEX
100
AcDbVertex
100
AcDb2dVertex
8
COFFR
10
297.223452
20
30.332175
30
0.0
0
VERTEX
100
AcDbVertex
100
AcDb2dVertex
8
COFFR
10
296.205883
20
30.600707
30
0.0
0
VERTEX
100
AcDbVertex
100
AcDb2dVertex
8
COFFR
10
295.188299
20
30.869042
30
0.0
0
VERTEX
100
AcDbVertex
100
AcDb2dVertex
8
COFFR
10
294.170728
20
31.137208
30
0.0
0
VERTEX
100
AcDbVertex
100
AcDb2dVertex
8
COFFR
10
293.153145
20
31.405177
30
0.0
0
VERTEX
100
AcDbVertex
100
AcDb2dVertex
8
COFFR
10
292.135182
20
31.672034
30
0.0
0
VERTEX
100
AcDbVertex
100
AcDb2dVertex
8
COFFR
10
291.117783
20
31.939152
30
0.0
0
VERTEX
100
AcDbVertex
100
AcDb2dVertex
8
COFFR
10
290.100558
20
32.206929
30
0.0
0
VERTEX
100
AcDbVertex
100
AcDb2dVertex
8
COFFR
10
289.08333
20
32.475349
30
0.0
0
VERTEX
100
AcDbVertex
100
AcDb2dVertex
8
COFFR
10
288.06763
20
32.748094
30
0.0
0
VERTEX
100
AcDbVertex
100
AcDb2dVertex
8
COFFR
10
287.049243
20
33.018633
30
0.0
0
VERTEX
100
AcDbVertex
100
AcDb2dVertex
8
COFFR
10
286.029606
20
33.284062
30
0.0
0
VERTEX
100
AcDbVertex
100
AcDb2dVertex
8
COFFR
10
285.009123
20
33.542394
30
0.0
0
VERTEX
100
AcDbVertex
100
AcDb2dVertex
8
COFFR
10
283.985189
20
33.785365
30
0.0
0
VERTEX
100
AcDbVertex
100
AcDb2dVertex
8
COFFR
10
282.964705
20
34.021393
30
0.0
0
VERTEX
100
AcDbVertex
100
AcDb2dVertex
8
COFFR
10
281.945068
20
34.252387
30
0.0
0
VERTEX
100
AcDbVertex
100
AcDb2dVertex
8
COFFR
10
280.926681
20
34.481323
30
0.0
0
VERTEX
100
AcDbVertex
100
AcDb2dVertex
8
COFFR
10
279.910976
20
34.714599
30
0.0
0
VERTEX
100
AcDbVertex
100
AcDb2dVertex
8
COFFR
10
278.893749
20
34.948471
30
0.0
0
VERTEX
100
AcDbVertex
100
AcDb2dVertex
8
COFFR
10
277.876515
20
35.182974
30
0.0
0
VERTEX
100
AcDbVertex
100
AcDb2dVertex
8
COFFR
10
276.859114
20
35.417705
30
0.0
0
VERTEX
100
AcDbVertex
100
AcDb2dVertex
8
COFFR
10
275.841136
20
35.651283
30
0.0
0
VERTEX
100
AcDbVertex
100
AcDb2dVertex
8
COFFR
10
274.823548
20
35.884668
30
0.0
0
VERTEX
100
AcDbVertex
100
AcDb2dVertex
8
COFFR
10
273.805968
20
36.117862
30
0.0
0
VERTEX
100
AcDbVertex
100
AcDb2dVertex
8
COFFR
10
272.78838
20
36.350849
30
0.0
0
VERTEX
100
AcDbVertex
100
AcDb2dVertex
8
COFFR
10
271.770806
20
36.583661
30
0.0
0
VERTEX
100
AcDbVertex
100
AcDb2dVertex
8
COFFR
10
270.753218
20
36.816263
30
0.0
0
VERTEX
100
AcDbVertex
100
AcDb2dVertex
8
COFFR
10
269.735637
20
37.048674
30
0.0
0
VERTEX
100
AcDbVertex
100
AcDb2dVertex
8
COFFR
10
268.718048
20
37.280873
30
0.0
0
VERTEX
100
AcDbVertex
100
AcDb2dVertex
8
COFFR
10
267.700471
20
37.51289
30
0.0
0
VERTEX
100
AcDbVertex
100
AcDb2dVertex
8
COFFR
10
266.68288
20
37.744691
30
0.0
0
VERTEX
100
AcDbVertex
100
AcDb2dVertex
8
COFFR
10
265.665297
20
37.976296
30
0.0
0
VERTEX
100
AcDbVertex
100
AcDb2dVertex
8
COFFR
10
264.647705
20
38.207682
30
0.0
0
VERTEX
100
AcDbVertex
100
AcDb2dVertex
8
COFFR
10
263.630126
20
38.438881
30
0.0
0
VERTEX
100
AcDbVertex
100
AcDb2dVertex
8
COFFR
10
262.612534
20
38.669864
30
0.0
0
VERTEX
100
AcDbVertex
100
AcDb2dVertex
8
COFFR
10
261.594946
20
38.900638
30
0.0
0
VERTEX
100
AcDbVertex
100
AcDb2dVertex
8
COFFR
10
260.577356
20
39.131199
30
0.0
0
VERTEX
100
AcDbVertex
100
AcDb2dVertex
8
COFFR
10
259.559773
20
39.361562
30
0.0
0
VERTEX
100
AcDbVertex
100
AcDb2dVertex
8
COFFR
10
258.542182
20
39.59171
30
0.0
0
VERTEX
100
AcDbVertex
100
AcDb2dVertex
8
COFFR
10
257.524594
20
39.82165
30
0.0
0
VERTEX
100
AcDbVertex
100
AcDb2dVertex
8
COFFR
10
256.507003
20
40.051373
30
0.0
0
VERTEX
100
AcDbVertex
100
AcDb2dVertex
8
COFFR
10
255.489419
20
40.280898
30
0.0
0
VERTEX
100
AcDbVertex
100
AcDb2dVertex
8
COFFR
10
254.471827
20
40.510204
30
0.0
0
VERTEX
100
AcDbVertex
100
AcDb2dVertex
8
COFFR
10
253.454237
20
40.739298
30
0.0
0
VERTEX
100
AcDbVertex
100
AcDb2dVertex
8
COFFR
10
252.436643
20
40.968168
30
0.0
0
VERTEX
100
AcDbVertex
100
AcDb2dVertex
8
COFFR
10
251.41857
20
41.195665
30
0.0
0
VERTEX
100
AcDbVertex
100
AcDb2dVertex
8
COFFR
10
250.401199
20
41.423491
30
0.0
0
VERTEX
100
AcDbVertex
100
AcDb2dVertex
8
COFFR
10
249.384029
20
41.652106
30
0.0
0
VERTEX
100
AcDbVertex
100
AcDb2dVertex
8
COFFR
10
248.366868
20
41.881523
30
0.0
0
VERTEX
100
AcDbVertex
100
AcDb2dVertex
8
COFFR
10
247.351552
20
42.116176
30
0.0
0
VERTEX
100
AcDbVertex
100
AcDb2dVertex
8
COFFR
10
246.332982
20
42.348187
30
0.0
0
VERTEX
100
AcDbVertex
100
AcDb2dVertex
8
COFFR
10
245.312894
20
42.574019
30
0.0
0
VERTEX
100
AcDbVertex
100
AcDb2dVertex
8
COFFR
10
244.291777
20
42.791253
30
0.0
0
VERTEX
100
AcDbVertex
100
AcDb2dVertex
8
COFFR
10
243.266471
20
42.989879
30
0.0
0
VERTEX
100
AcDbVertex
100
AcDb2dVertex
8
COFFR
10
242.245353
20
43.180065
30
0.0
0
VERTEX
100
AcDbVertex
100
AcDb2dVertex
8
COFFR
10
241.225263
20
43.364148
30
0.0
0
VERTEX
100
AcDbVertex
100
AcDb2dVertex
8
COFFR
10
240.206692
20
43.545734
30
0.0
0
VERTEX
100
AcDbVertex
100
AcDb2dVertex
8
COFFR
10
239.191373
20
43.73257
30
0.0
0
VERTEX
100
AcDbVertex
100
AcDb2dVertex
8
COFFR
10
238.174211
20
43.920159
30
0.0
0
VERTEX
100
AcDbVertex
100
AcDb2dVertex
8
COFFR
10
237.157036
20
44.108517
30
0.0
0
VERTEX
100
AcDbVertex
100
AcDb2dVertex
8
COFFR
10
236.139665
20
44.297177
30
0.0
0
VERTEX
100
AcDbVertex
100
AcDb2dVertex
8
COFFR
10
235.121586
20
44.484446
30
0.0
0
VERTEX
100
AcDbVertex
100
AcDb2dVertex
8
COFFR
10
234.103991
20
44.671501
30
0.0
0
VERTEX
100
AcDbVertex
100
AcDb2dVertex
8
COFFR
10
233.086395
20
44.858331
30
0.0
0
VERTEX
100
AcDbVertex
100
AcDb2dVertex
8
COFFR
10
232.0688
20
45.044935
30
0.0
0
VERTEX
100
AcDbVertex
100
AcDb2dVertex
8
COFFR
10
231.05121
20
45.231325
30
0.0
0
VERTEX
100
AcDbVertex
100
AcDb2dVertex
8
COFFR
10
230.033613
20
45.417486
30
0.0
0
VERTEX
100
AcDbVertex
100
AcDb2dVertex
8
COFFR
10
229.016017
20
45.603421
30
0.0
0
VERTEX
100
AcDbVertex
100
AcDb2dVertex
8
COFFR
10
227.998419
20
45.789124
30
0.0
0
VERTEX
100
AcDbVertex
100
AcDb2dVertex
8
COFFR
10
226.980825
20
45.974604
30
0.0
0
VERTEX
100
AcDbVertex
100
AcDb2dVertex
8
COFFR
10
225.963227
20
46.159849
30
0.0
0
VERTEX
100
AcDbVertex
100
AcDb2dVertex
8
COFFR
10
224.94563
20
46.344866
30
0.0
0
VERTEX
100
AcDbVertex
100
AcDb2dVertex
8
COFFR
10
223.928031
20
46.529649
30
0.0
0
VERTEX
100
AcDbVertex
100
AcDb2dVertex
8
COFFR
10
222.910439
20
46.714215
30
0.0
0
VERTEX
100
AcDbVertex
100
AcDb2dVertex
8
COFFR
10
221.89284
20
46.898545
30
0.0
0
VERTEX
100
AcDbVertex
100
AcDb2dVertex
8
COFFR
10
220.875244
20
47.082647
30
0.0
0
VERTEX
100
AcDbVertex
100
AcDb2dVertex
8
COFFR
10
219.857644
20
47.266512
30
0.0
0
VERTEX
100
AcDbVertex
100
AcDb2dVertex
8
COFFR
10
218.840051
20
47.450158
30
0.0
0
VERTEX
100
AcDbVertex
100
AcDb2dVertex
8
COFFR
10
217.82245
20
47.633565
30
0.0
0
VERTEX
100
AcDbVertex
100
AcDb2dVertex
8
COFFR
10
216.804852
20
47.81674
30
0.0
0
VERTEX
100
AcDbVertex
100
AcDb2dVertex
8
COFFR
10
215.78725
20
47.999671
30
0.0
0
VERTEX
100
AcDbVertex
100
AcDb2dVertex
8
COFFR
10
214.769654
20
48.182375
30
0.0
0
VERTEX
100
AcDbVertex
100
AcDb2dVertex
8
COFFR
10
213.752052
20
48.364839
30
0.0
0
VERTEX
100
AcDbVertex
100
AcDb2dVertex
8
COFFR
10
212.734451
20
48.547062
30
0.0
0
VERTEX
100
AcDbVertex
100
AcDb2dVertex
8
COFFR
10
211.716851
20
48.729049
30
0.0
0
VERTEX
100
AcDbVertex
100
AcDb2dVertex
8
COFFR
10
210.698693
20
48.909463
30
0.0
0
VERTEX
100
AcDbVertex
100
AcDb2dVertex
8
COFFR
10
209.681351
20
49.090273
30
0.0
0
VERTEX
100
AcDbVertex
100
AcDb2dVertex
8
COFFR
10
208.664233
20
49.271993
30
0.0
0
VERTEX
100
AcDbVertex
100
AcDb2dVertex
8
COFFR
10
207.647131
20
49.454655
30
0.0
0
VERTEX
100
AcDbVertex
100
AcDb2dVertex
8
COFFR
10
206.632147
20
49.643334
30
0.0
0
VERTEX
100
AcDbVertex
100
AcDb2dVertex
8
COFFR
10
205.613416
20
49.829
30
0.0
0
VERTEX
100
AcDbVertex
100
AcDb2dVertex
8
COFFR
10
204.592925
20
50.007535
30
0.0
0
VERTEX
100
AcDbVertex
100
AcDb2dVertex
8
COFFR
10
203.571252
20
50.176162
30
0.0
0
VERTEX
100
AcDbVertex
100
AcDb2dVertex
8
COFFR
10
202.544733
20
50.323329
30
0.0
0
VERTEX
100
AcDbVertex
100
AcDb2dVertex
8
COFFR
10
201.523058
20
50.460726
30
0.0
0
VERTEX
100
AcDbVertex
100
AcDb2dVertex
8
COFFR
10
200.502563
20
50.591056
30
0.0
0
VERTEX
100
AcDbVertex
100
AcDb2dVertex
8
COFFR
10
199.483827
20
50.718493
30
0.0
0
VERTEX
100
AcDbVertex
100
AcDb2dVertex
8
COFFR
10
198.468837
20
50.851943
30
0.0
0
VERTEX
100
AcDbVertex
100
AcDb2dVertex
8
COFFR
10
197.451725
20
50.986273
30
0.0
0
VERTEX
100
AcDbVertex
100
AcDb2dVertex
8
COFFR
10
196.434594
20
51.121478
30
0.0
0
VERTEX
100
AcDbVertex
100
AcDb2dVertex
8
COFFR
10
195.417237
20
51.257017
30
0.0
0
VERTEX
100
AcDbVertex
100
AcDb2dVertex
8
COFFR
10
194.399058
20
51.390932
30
0.0
0
VERTEX
100
AcDbVertex
100
AcDb2dVertex
8
COFFR
10
193.381439
20
51.524575
30
0.0
0
VERTEX
100
AcDbVertex
100
AcDb2dVertex
8
COFFR
10
192.363815
20
51.657924
30
0.0
0
VERTEX
100
AcDbVertex
100
AcDb2dVertex
8
COFFR
10
191.346192
20
51.790982
30
0.0
0
VERTEX
100
AcDbVertex
100
AcDb2dVertex
8
COFFR
10
190.328567
20
51.923744
30
0.0
0
VERTEX
100
AcDbVertex
100
AcDb2dVertex
8
COFFR
10
189.31094
20
52.056205
30
0.0
0
VERTEX
100
AcDbVertex
100
AcDb2dVertex
8
COFFR
10
188.293308
20
52.188354
30
0.0
0
VERTEX
100
AcDbVertex
100
AcDb2dVertex
8
COFFR
10
187.275677
20
52.320194
30
0.0
0
VERTEX
100
AcDbVertex
100
AcDb2dVertex
8
COFFR
10
186.258044
20
52.451717
30
0.0
0
VERTEX
100
AcDbVertex
100
AcDb2dVertex
8
COFFR
10
185.24041
20
52.582923
30
0.0
0
VERTEX
100
AcDbVertex
100
AcDb2dVertex
8
COFFR
10
184.222772
20
52.713802
30
0.0
0
VERTEX
100
AcDbVertex
100
AcDb2dVertex
8
COFFR
10
183.205136
20
52.844359
30
0.0
0
VERTEX
100
AcDbVertex
100
AcDb2dVertex
8
COFFR
10
182.187498
20
52.974591
30
0.0
0
VERTEX
100
AcDbVertex
100
AcDb2dVertex
8
COFFR
10
181.16986
20
53.104494
30
0.0
0
VERTEX
100
AcDbVertex
100
AcDb2dVertex
8
COFFR
10
180.152214
20
53.234052
30
0.0
0
VERTEX
100
AcDbVertex
100
AcDb2dVertex
8
COFFR
10
179.134572
20
53.363275
30
0.0
0
VERTEX
100
AcDbVertex
100
AcDb2dVertex
8
COFFR
10
178.116926
20
53.492151
30
0.0
0
VERTEX
100
AcDbVertex
100
AcDb2dVertex
8
COFFR
10
177.09928
20
53.620681
30
0.0
0
VERTEX
100
AcDbVertex
100
AcDb2dVertex
8
COFFR
10
176.081626
20
53.748846
30
0.0
0
VERTEX
100
AcDbVertex
100
AcDb2dVertex
8
COFFR
10
175.063975
20
53.876653
30
0.0
0
VERTEX
100
AcDbVertex
100
AcDb2dVertex
8
COFFR
10
174.046317
20
54.004088
30
0.0
0
VERTEX
100
AcDbVertex
100
AcDb2dVertex
8
COFFR
10
173.028663
20
54.131158
30
0.0
0
VERTEX
100
AcDbVertex
100
AcDb2dVertex
8
COFFR
10
172.011003
20
54.257849
30
0.0
0
VERTEX
100
AcDbVertex
100
AcDb2dVertex
8
COFFR
10
170.993348
20
54.384171
30
0.0
0
VERTEX
100
AcDbVertex
100
AcDb2dVertex
8
COFFR
10
169.974797
20
54.507989
30
0.0
0
VERTEX
100
AcDbVertex
100
AcDb2dVertex
8
COFFR
10
168.957551
20
54.632431
30
0.0
0
VERTEX
100
AcDbVertex
100
AcDb2dVertex
8
COFFR
10
167.940654
20
54.758307
30
0.0
0
VERTEX
100
AcDbVertex
100
AcDb2dVertex
8
COFFR
10
166.923788
20
54.885685
30
0.0
0
VERTEX
100
AcDbVertex
100
AcDb2dVertex
8
COFFR
10
165.910279
20
55.022579
30
0.0
0
VERTEX
100
AcDbVertex
100
AcDb2dVertex
8
COFFR
10
164.890825
20
55.154734
30
0.0
0
VERTEX
100
AcDbVertex
100
AcDb2dVertex
8
COFFR
10
163.868566
20
55.275571
30
0.0
0
VERTEX
100
AcDbVertex
100
AcDb2dVertex
8
COFFR
10
162.844437
20
55.380689
30
0.0
0
VERTEX
100
AcDbVertex
100
AcDb2dVertex
8
COFFR
10
161.812596
20
55.451775
30
0.0
0
VERTEX
100
AcDbVertex
100
AcDb2dVertex
8
COFFR
10
160.788467
20
55.507282
30
0.0
0
VERTEX
100
AcDbVertex
100
AcDb2dVertex
8
COFFR
10
159.766205
20
55.55154
30
0.0
0
VERTEX
100
AcDbVertex
100
AcDb2dVertex
8
COFFR
10
158.746752
20
55.591195
30
0.0
0
VERTEX
100
AcDbVertex
100
AcDb2dVertex
8
COFFR
10
157.733241
20
55.640331
30
0.0
0
VERTEX
100
AcDbVertex
100
AcDb2dVertex
8
COFFR
10
156.716374
20
55.690946
30
0.0
0
VERTEX
100
AcDbVertex
100
AcDb2dVertex
8
COFFR
10
155.69947
20
55.742971
30
0.0
0
VERTEX
100
AcDbVertex
100
AcDb2dVertex
8
COFFR
10
154.682219
20
55.795585
30
0.0
0
VERTEX
100
AcDbVertex
100
AcDb2dVertex
8
COFFR
10
153.663653
20
55.845664
30
0.0
0
VERTEX
100
AcDbVertex
100
AcDb2dVertex
8
COFFR
10
152.645991
20
55.895366
30
0.0
0
VERTEX
100
AcDbVertex
100
AcDb2dVertex
8
COFFR
10
151.628319
20
55.944662
30
0.0
0
VERTEX
100
AcDbVertex
100
AcDb2dVertex
8
COFFR
10
150.610659
20
55.993579
30
0.0
0
VERTEX
100
AcDbVertex
100
AcDb2dVertex
8
COFFR
10
149.59299
20
56.042096
30
0.0
0
VERTEX
100
AcDbVertex
100
AcDb2dVertex
8
COFFR
10
148.575332
20
56.090237
30
0.0
0
VERTEX
100
AcDbVertex
100
AcDb2dVertex
8
COFFR
10
147.557664
20
56.137981
30
0.0
0
VERTEX
100
AcDbVertex
100
AcDb2dVertex
8
COFFR
10
146.540007
20
56.185353
30
0.0
0
VERTEX
100
AcDbVertex
100
AcDb2dVertex
8
COFFR
10
145.522342
20
56.232334
30
0.0
0
VERTEX
100
AcDbVertex
100
AcDb2dVertex
8
COFFR
10
144.504686
20
56.278946
30
0.0
0
VERTEX
100
AcDbVertex
100
AcDb2dVertex
8
COFFR
10
143.487021
20
56.325167
30
0.0
0
VERTEX
100
AcDbVertex
100
AcDb2dVertex
8
COFFR
10
142.469366
20
56.371022
30
0.0
0
VERTEX
100
AcDbVertex
100
AcDb2dVertex
8
COFFR
10
141.451703
20
56.416491
30
0.0
0
VERTEX
100
AcDbVertex
100
AcDb2dVertex
8
COFFR
10
140.434049
20
56.461596
30
0.0
0
VERTEX
100
AcDbVertex
100
AcDb2dVertex
8
COFFR
10
139.416386
20
56.506313
30
0.0
0
VERTEX
100
AcDbVertex
100
AcDb2dVertex
8
COFFR
10
138.398733
20
56.550668
30
0.0
0
VERTEX
100
AcDbVertex
100
AcDb2dVertex
8
COFFR
10
137.38107
20
56.594639
30
0.0
0
VERTEX
100
AcDbVertex
100
AcDb2dVertex
8
COFFR
10
136.363417
20
56.638248
30
0.0
0
VERTEX
100
AcDbVertex
100
AcDb2dVertex
8
COFFR
10
135.345754
20
56.68147
30
0.0
0
VERTEX
100
AcDbVertex
100
AcDb2dVertex
8
COFFR
10
134.328102
20
56.724331
30
0.0
0
VERTEX
100
AcDbVertex
100
AcDb2dVertex
8
COFFR
10
133.310439
20
56.766807
30
0.0
0
VERTEX
100
AcDbVertex
100
AcDb2dVertex
8
COFFR
10
132.292786
20
56.808921
30
0.0
0
VERTEX
100
AcDbVertex
100
AcDb2dVertex
8
COFFR
10
131.275123
20
56.850648
30
0.0
0
VERTEX
100
AcDbVertex
100
AcDb2dVertex
8
COFFR
10
130.257469
20
56.892011
30
0.0
0
VERTEX
100
AcDbVertex
100
AcDb2dVertex
8
COFFR
10
129.238867
20
56.93076
30
0.0
0
VERTEX
100
AcDbVertex
100
AcDb2dVertex
8
COFFR
10
128.221646
20
56.970177
30
0.0
0
VERTEX
100
AcDbVertex
100
AcDb2dVertex
8
COFFR
10
127.20479
20
57.01112
30
0.0
0
VERTEX
100
AcDbVertex
100
AcDb2dVertex
8
COFFR
10
126.18797
20
57.053675
30
0.0
0
VERTEX
100
AcDbVertex
100
AcDb2dVertex
8
COFFR
10
125.174675
20
57.10621
30
0.0
0
VERTEX
100
AcDbVertex
100
AcDb2dVertex
8
COFFR
10
124.155139
20
57.153882
30
0.0
0
VERTEX
100
AcDbVertex
100
AcDb2dVertex
8
COFFR
10
123.132655
20
57.189737
30
0.0
0
VERTEX
100
AcDbVertex
100
AcDb2dVertex
8
COFFR
10
122.108209
20
57.209149
30
0.0
0
VERTEX
100
AcDbVertex
100
AcDb2dVertex
8
COFFR
10
121.08934
20
57.19295
30
0.0
0
VERTEX
100
AcDbVertex
100
AcDb2dVertex
8
COFFR
10
120.078791
20
57.16032
30
0.0
0
VERTEX
100
AcDbVertex
100
AcDb2dVertex
8
COFFR
10
119.06629
20
57.115855
30
0.0
0
VERTEX
100
AcDbVertex
100
AcDb2dVertex
8
COFFR
10
118.050841
20
57.066519
30
0.0
0
VERTEX
100
AcDbVertex
100
AcDb2dVertex
8
COFFR
10
117.029169
20
57.027023
30
0.0
0
VERTEX
100
AcDbVertex
100
AcDb2dVertex
8
COFFR
10
116.011014
20
56.9891
30
0.0
0
VERTEX
100
AcDbVertex
100
AcDb2dVertex
8
COFFR
10
114.992908
20
56.952614
30
0.0
0
VERTEX
100
AcDbVertex
100
AcDb2dVertex
8
COFFR
10
113.975164
20
56.916708
30
0.0
0
VERTEX
100
AcDbVertex
100
AcDb2dVertex
8
COFFR
10
112.958812
20
56.87809
30
0.0
0
VERTEX
100
AcDbVertex
100
AcDb2dVertex
8
COFFR
10
111.941509
20
56.839001
30
0.0
0
VERTEX
100
AcDbVertex
100
AcDb2dVertex
8
COFFR
10
110.924229
20
56.79939
30
0.0
0
VERTEX
100
AcDbVertex
100
AcDb2dVertex
8
COFFR
10
109.906936
20
56.75929
30
0.0
0
VERTEX
100
AcDbVertex
100
AcDb2dVertex
8
COFFR
10
108.889668
20
56.71864
30
0.0
0
VERTEX
100
AcDbVertex
100
AcDb2dVertex
8
COFFR
10
107.872384
20
56.67748
30
0.0
0
VERTEX
100
AcDbVertex
100
AcDb2dVertex
8
COFFR
10
106.855125
20
56.635748
30
0.0
0
VERTEX
100
AcDbVertex
100
AcDb2dVertex
8
COFFR
10
105.83785
20
56.593484
30
0.0
0
VERTEX
100
AcDbVertex
100
AcDb2dVertex
8
COFFR
10
104.820602
20
56.550622
30
0.0
0
VERTEX
100
AcDbVertex
100
AcDb2dVertex
8
COFFR
10
103.803336
20
56.507206
30
0.0
0
VERTEX
100
AcDbVertex
100
AcDb2dVertex
8
COFFR
10
102.786097
20
56.463172
30
0.0
0
VERTEX
100
AcDbVertex
100
AcDb2dVertex
8
COFFR
10
101.768841
20
56.418561
30
0.0
0
VERTEX
100
AcDbVertex
100
AcDb2dVertex
8
COFFR
10
100.751613
20
56.373307
30
0.0
0
VERTEX
100
AcDbVertex
100
AcDb2dVertex
8
COFFR
10
99.734366
20
56.327452
30
0.0
0
VERTEX
100
AcDbVertex
100
AcDb2dVertex
8
COFFR
10
98.717147
20
56.280933
30
0.0
0
VERTEX
100
AcDbVertex
100
AcDb2dVertex
8
COFFR
10
97.699934
20
56.233735
30
0.0
0
VERTEX
100
AcDbVertex
100
AcDb2dVertex
8
COFFR
10
96.682681
20
56.185951
30
0.0
0
VERTEX
100
AcDbVertex
100
AcDb2dVertex
8
COFFR
10
95.665477
20
56.137466
30
0.0
0
VERTEX
100
AcDbVertex
100
AcDb2dVertex
8
COFFR
10
94.648279
20
56.088266
30
0.0
0
VERTEX
100
AcDbVertex
100
AcDb2dVertex
8
COFFR
10
93.631086
20
56.038339
30
0.0
0
VERTEX
100
AcDbVertex
100
AcDb2dVertex
8
COFFR
10
92.61385
20
55.987787
30
0.0
0
VERTEX
100
AcDbVertex
100
AcDb2dVertex
8
COFFR
10
91.596668
20
55.936482
30
0.0
0
VERTEX
100
AcDbVertex
100
AcDb2dVertex
8
COFFR
10
90.579493
20
55.884407
30
0.0
0
VERTEX
100
AcDbVertex
100
AcDb2dVertex
8
COFFR
10
89.562604
20
55.830889
30
0.0
0
VERTEX
100
AcDbVertex
100
AcDb2dVertex
8
COFFR
10
88.546122
20
55.774964
30
0.0
0
VERTEX
100
AcDbVertex
100
AcDb2dVertex
8
COFFR
10
87.528649
20
55.718966
30
0.0
0
VERTEX
100
AcDbVertex
100
AcDb2dVertex
8
COFFR
10
86.510386
20
55.664769
30
0.0
0
VERTEX
100
AcDbVertex
100
AcDb2dVertex
8
COFFR
10
85.490909
20
55.615244
30
0.0
0
VERTEX
100
AcDbVertex
100
AcDb2dVertex
8
COFFR
10
84.47008
20
55.573597
30
0.0
0
VERTEX
100
AcDbVertex
100
AcDb2dVertex
8
COFFR
10
83.454333
20
55.527829
30
0.0
0
VERTEX
100
AcDbVertex
100
AcDb2dVertex
8
COFFR
10
82.443802
20
55.465604
30
0.0
0
VERTEX
100
AcDbVertex
100
AcDb2dVertex
8
COFFR
10
81.438632
20
55.374261
30
0.0
0
VERTEX
100
AcDbVertex
100
AcDb2dVertex
8
COFFR
10
80.436543
20
55.246527
30
0.0
0
VERTEX
100
AcDbVertex
100
AcDb2dVertex
8
COFFR
10
79.431377
20
55.089591
30
0.0
0
VERTEX
100
AcDbVertex
100
AcDb2dVertex
8
COFFR
10
78.420857
20
54.91604
30
0.0
0
VERTEX
100
AcDbVertex
100
AcDb2dVertex
8
COFFR
10
77.405131
20
54.738168
30
0.0
0
VERTEX
100
AcDbVertex
100
AcDb2dVertex
8
COFFR
10
76.384324
20
54.568003
30
0.0
0
VERTEX
100
AcDbVertex
100
AcDb2dVertex
8
COFFR
10
75.364883
20
54.402472
30
0.0
0
VERTEX
100
AcDbVertex
100
AcDb2dVertex
8
COFFR
10
74.346664
20
54.238672
30
0.0
0
VERTEX
100
AcDbVertex
100
AcDb2dVertex
8
COFFR
10
73.329247
20
54.074695
30
0.0
0
VERTEX
100
AcDbVertex
100
AcDb2dVertex
8
COFFR
10
72.312818
20
53.908204
30
0.0
0
VERTEX
100
AcDbVertex
100
AcDb2dVertex
8
COFFR
10
71.296002
20
53.740083
30
0.0
0
VERTEX
100
AcDbVertex
100
AcDb2dVertex
8
COFFR
10
70.278914
20
53.570981
30
0.0
0
VERTEX
100
AcDbVertex
100
AcDb2dVertex
8
COFFR
10
69.262089
20
53.400285
30
0.0
0
VERTEX
100
AcDbVertex
100
AcDb2dVertex
8
COFFR
10
68.245624
20
53.227147
30
0.0
0
VERTEX
100
AcDbVertex
100
AcDb2dVertex
8
COFFR
10
67.228259
20
53.053668
30
0.0
0
VERTEX
100
AcDbVertex
100
AcDb2dVertex
8
COFFR
10
66.210162
20
52.881586
30
0.0
0
VERTEX
100
AcDbVertex
100
AcDb2dVertex
8
COFFR
10
65.190939
20
52.713559
30
0.0
0
VERTEX
100
AcDbVertex
100
AcDb2dVertex
8
COFFR
10
64.170443
20
52.552599
30
0.0
0
VERTEX
100
AcDbVertex
100
AcDb2dVertex
8
COFFR
10
63.154683
20
52.387626
30
0.0
0
VERTEX
100
AcDbVertex
100
AcDb2dVertex
8
COFFR
10
62.143762
20
52.207191
30
0.0
0
VERTEX
100
AcDbVertex
100
AcDb2dVertex
8
COFFR
10
61.137817
20
51.999542
30
0.0
0
VERTEX
100
AcDbVertex
100
AcDb2dVertex
8
COFFR
10
60.134714
20
51.757925
30
0.0
0
VERTEX
100
AcDbVertex
100
AcDb2dVertex
8
COFFR
10
59.128757
20
51.488918
30
0.0
0
VERTEX
100
AcDbVertex
100
AcDb2dVertex
8
COFFR
10
58.117816
20
51.204209
30
0.0
0
VERTEX
100
AcDbVertex
100
AcDb2dVertex
8
COFFR
10
57.102029
20
50.915254
30
0.0
0
VERTEX
100
AcDbVertex
100
AcDb2dVertex
8
COFFR
10
56.081507
20
50.633271
30
0.0
0
VERTEX
100
AcDbVertex
100
AcDb2dVertex
8
COFFR
10
55.062255
20
50.355491
30
0.0
0
VERTEX
100
AcDbVertex
100
AcDb2dVertex
8
COFFR
10
54.044134
20
50.079228
30
0.0
0
VERTEX
100
AcDbVertex
100
AcDb2dVertex
8
COFFR
10
53.026752
20
49.802713
30
0.0
0
VERTEX
100
AcDbVertex
100
AcDb2dVertex
8
COFFR
10
52.01028
20
49.523798
30
0.0
0
VERTEX
100
AcDbVertex
100
AcDb2dVertex
8
COFFR
10
50.993456
20
49.243268
30
0.0
0
VERTEX
100
AcDbVertex
100
AcDb2dVertex
8
COFFR
10
49.976378
20
48.961729
30
0.0
0
VERTEX
100
AcDbVertex
100
AcDb2dVertex
8
COFFR
10
48.959547
20
48.678614
30
0.0
0
VERTEX
100
AcDbVertex
100
AcDb2dVertex
8
COFFR
10
47.943042
20
48.393155
30
0.0
0
VERTEX
100
AcDbVertex
100
AcDb2dVertex
8
COFFR
10
46.925729
20
48.10722
30
0.0
0
VERTEX
100
AcDbVertex
100
AcDb2dVertex
8
COFFR
10
45.907757
20
47.822377
30
0.0
0
VERTEX
100
AcDbVertex
100
AcDb2dVertex
8
COFFR
10
44.888774
20
47.541008
30
0.0
0
VERTEX
100
AcDbVertex
100
AcDb2dVertex
8
COFFR
10
43.86863
20
47.265859
30
0.0
0
VERTEX
100
AcDbVertex
100
AcDb2dVertex
8
COFFR
10
42.852844
20
46.98682
30
0.0
0
VERTEX
100
AcDbVertex
100
AcDb2dVertex
8
COFFR
10
41.841501
20
46.693372
30
0.0
0
VERTEX
100
AcDbVertex
100
AcDb2dVertex
8
COFFR
10
40.834895
20
46.374325
30
0.0
0
VERTEX
100
AcDbVertex
100
AcDb2dVertex
8
COFFR
10
39.831146
20
46.022864
30
0.0
0
VERTEX
100
AcDbVertex
100
AcDb2dVertex
8
COFFR
10
38.824273
20
45.646101
30
0.0
0
VERTEX
100
AcDbVertex
100
AcDb2dVertex
8
COFFR
10
37.812458
20
45.255618
30
0.0
0
VERTEX
100
AcDbVertex
100
AcDb2dVertex
8
COFFR
10
36.795747
20
44.863
30
0.0
0
VERTEX
100
AcDbVertex
100
AcDb2dVertex
8
COFFR
10
35.774207
20
44.479699
30
0.0
0
VERTEX
100
AcDbVertex
100
AcDb2dVertex
8
COFFR
10
34.756321
20
44.097513
30
0.0
0
VERTEX
100
AcDbVertex
100
AcDb2dVertex
8
COFFR
10
33.742152
20
43.707631
30
0.0
0
VERTEX
100
AcDbVertex
100
AcDb2dVertex
8
COFFR
10
32.731181
20
43.302449
30
0.0
0
VERTEX
100
AcDbVertex
100
AcDb2dVertex
8
COFFR
10
31.722069
20
42.877498
30
0.0
0
VERTEX
100
AcDbVertex
100
AcDb2dVertex
8
COFFR
10
30.713919
20
42.43045
30
0.0
0
VERTEX
100
AcDbVertex
100
AcDb2dVertex
8
COFFR
10
29.705503
20
41.961858
30
0.0
0
VERTEX
100
AcDbVertex
100
AcDb2dVertex
8
COFFR
10
28.697719
20
41.47028
30
0.0
0
VERTEX
100
AcDbVertex
100
AcDb2dVertex
8
COFFR
10
27.689437
20
40.956814
30
0.0
0
VERTEX
100
AcDbVertex
100
AcDb2dVertex
8
COFFR
10
26.678531
20
40.427525
30
0.0
0
VERTEX
100
AcDbVertex
100
AcDb2dVertex
8
COFFR
10
25.663867
20
39.89123
30
0.0
0
VERTEX
100
AcDbVertex
100
AcDb2dVertex
8
COFFR
10
24.644093
20
39.35995
30
0.0
0
VERTEX
100
AcDbVertex
100
AcDb2dVertex
8
COFFR
10
23.618772
20
38.846835
30
0.0
0
VERTEX
100
AcDbVertex
100
AcDb2dVertex
8
COFFR
10
22.604693
20
38.326422
30
0.0
0
VERTEX
100
AcDbVertex
100
AcDb2dVertex
8
COFFR
10
21.601578
20
37.772692
30
0.0
0
VERTEX
100
AcDbVertex
100
AcDb2dVertex
8
COFFR
10
20.603424
20
37.173487
30
0.0
0
VERTEX
100
AcDbVertex
100
AcDb2dVertex
8
COFFR
10
19.626249
20
36.480516
30
0.0
0
SEQEND
0
POLYLINE
5
 503
100
AcDbEntity
8
COFFR
66
 1
100
AcDb2dPolyline
70
 0
0
VERTEX
100
AcDbVertex
100
AcDb2dVertex
8
COFFR
10
393.789039
20
3.479349
30
0.0
0
VERTEX
100
AcDbVertex
100
AcDb2dVertex
8
COFFR
10
392.771531
20
3.440205
30
0.0
0
VERTEX
100
AcDbVertex
100
AcDb2dVertex
8
COFFR
10
391.754203
20
3.400654
30
0.0
0
VERTEX
100
AcDbVertex
100
AcDb2dVertex
8
COFFR
10
390.736919
20
3.360592
30
0.0
0
VERTEX
100
AcDbVertex
100
AcDb2dVertex
8
COFFR
10
389.721417
20
3.315789
30
0.0
0
VERTEX
100
AcDbVertex
100
AcDb2dVertex
8
COFFR
10
388.702772
20
3.273715
30
0.0
0
VERTEX
100
AcDbVertex
100
AcDb2dVertex
8
COFFR
10
387.682627
20
3.237911
30
0.0
0
VERTEX
100
AcDbVertex
100
AcDb2dVertex
8
COFFR
10
386.661507
20
3.210681
30
0.0
0
VERTEX
100
AcDbVertex
100
AcDb2dVertex
8
COFFR
10
385.636273
20
3.201768
30
0.0
0
VERTEX
100
AcDbVertex
100
AcDb2dVertex
8
COFFR
10
384.615167
20
3.201374
30
0.0
0
VERTEX
100
AcDbVertex
100
AcDb2dVertex
8
COFFR
10
383.599943
20
3.207157
30
0.0
0
VERTEX
100
AcDbVertex
100
AcDb2dVertex
8
COFFR
10
382.583543
20
3.215545
30
0.0
0
VERTEX
100
AcDbVertex
100
AcDb2dVertex
8
COFFR
10
381.563975
20
3.21904
30
0.0
0
VERTEX
100
AcDbVertex
100
AcDb2dVertex
8
COFFR
10
380.546184
20
3.221843
30
0.0
0
VERTEX
100
AcDbVertex
100
AcDb2dVertex
8
COFFR
10
379.528411
20
3.224001
30
0.0
0
VERTEX
100
AcDbVertex
100
AcDb2dVertex
8
COFFR
10
378.510813
20
3.225926
30
0.0
0
VERTEX
100
AcDbVertex
100
AcDb2dVertex
8
COFFR
10
377.493921
20
3.22929
30
0.0
0
VERTEX
100
AcDbVertex
100
AcDb2dVertex
8
COFFR
10
376.476527
20
3.232907
30
0.0
0
VERTEX
100
AcDbVertex
100
AcDb2dVertex
8
COFFR
10
375.459134
20
3.236776
30
0.0
0
VERTEX
100
AcDbVertex
100
AcDb2dVertex
8
COFFR
10
374.441726
20
3.240862
30
0.0
0
VERTEX
100
AcDbVertex
100
AcDb2dVertex
8
COFFR
10
373.424462
20
3.245509
30
0.0
0
VERTEX
100
AcDbVertex
100
AcDb2dVertex
8
COFFR
10
372.406984
20
3.250207
30
0.0
0
VERTEX
100
AcDbVertex
100
AcDb2dVertex
8
COFFR
10
371.38946
20
3.254847
30
0.0
0
VERTEX
100
AcDbVertex
100
AcDb2dVertex
8
COFFR
10
370.371932
20
3.259421
30
0.0
0
VERTEX
100
AcDbVertex
100
AcDb2dVertex
8
COFFR
10
369.353826
20
3.262562
30
0.0
0
VERTEX
100
AcDbVertex
100
AcDb2dVertex
8
COFFR
10
368.336772
20
3.266757
30
0.0
0
VERTEX
100
AcDbVertex
100
AcDb2dVertex
8
COFFR
10
367.320228
20
3.273217
30
0.0
0
VERTEX
100
AcDbVertex
100
AcDb2dVertex
8
COFFR
10
366.304006
20
3.2827
30
0.0
0
VERTEX
100
AcDbVertex
100
AcDb2dVertex
8
COFFR
10
365.289191
20
3.298539
30
0.0
0
VERTEX
100
AcDbVertex
100
AcDb2dVertex
8
COFFR
10
364.272931
20
3.317315
30
0.0
0
VERTEX
100
AcDbVertex
100
AcDb2dVertex
8
COFFR
10
363.256305
20
3.338162
30
0.0
0
VERTEX
100
AcDbVertex
100
AcDb2dVertex
8
COFFR
10
362.239146
20
3.359816
30
0.0
0
VERTEX
100
AcDbVertex
100
AcDb2dVertex
8
COFFR
10
361.220853
20
3.379597
30
0.0
0
VERTEX
100
AcDbVertex
100
AcDb2dVertex
8
COFFR
10
360.2032
20
3.399013
30
0.0
0
VERTEX
100
AcDbVertex
100
AcDb2dVertex
8
COFFR
10
359.18555
20
3.418073
30
0.0
0
VERTEX
100
AcDbVertex
100
AcDb2dVertex
8
COFFR
10
358.16797
20
3.436946
30
0.0
0
VERTEX
100
AcDbVertex
100
AcDb2dVertex
8
COFFR
10
357.150642
20
3.456224
30
0.0
0
VERTEX
100
AcDbVertex
100
AcDb2dVertex
8
COFFR
10
356.133143
20
3.475504
30
0.0
0
VERTEX
100
AcDbVertex
100
AcDb2dVertex
8
COFFR
10
355.115643
20
3.494786
30
0.0
0
VERTEX
100
AcDbVertex
100
AcDb2dVertex
8
COFFR
10
354.098145
20
3.514072
30
0.0
0
VERTEX
100
AcDbVertex
100
AcDb2dVertex
8
COFFR
10
353.080647
20
3.533362
30
0.0
0
VERTEX
100
AcDbVertex
100
AcDb2dVertex
8
COFFR
10
352.063148
20
3.552655
30
0.0
0
VERTEX
100
AcDbVertex
100
AcDb2dVertex
8
COFFR
10
351.045648
20
3.571947
30
0.0
0
VERTEX
100
AcDbVertex
100
AcDb2dVertex
8
COFFR
10
350.028147
20
3.591239
30
0.0
0
VERTEX
100
AcDbVertex
100
AcDb2dVertex
8
COFFR
10
349.010644
20
3.610523
30
0.0
0
VERTEX
100
AcDbVertex
100
AcDb2dVertex
8
COFFR
10
347.993143
20
3.629805
30
0.0
0
VERTEX
100
AcDbVertex
100
AcDb2dVertex
8
COFFR
10
346.975642
20
3.649085
30
0.0
0
VERTEX
100
AcDbVertex
100
AcDb2dVertex
8
COFFR
10
345.958143
20
3.668366
30
0.0
0
VERTEX
100
AcDbVertex
100
AcDb2dVertex
8
COFFR
10
344.940642
20
3.687646
30
0.0
0
VERTEX
100
AcDbVertex
100
AcDb2dVertex
8
COFFR
10
343.923143
20
3.706928
30
0.0
0
VERTEX
100
AcDbVertex
100
AcDb2dVertex
8
COFFR
10
342.905643
20
3.726209
30
0.0
0
VERTEX
100
AcDbVertex
100
AcDb2dVertex
8
COFFR
10
341.888144
20
3.745492
30
0.0
0
VERTEX
100
AcDbVertex
100
AcDb2dVertex
8
COFFR
10
340.870643
20
3.764773
30
0.0
0
VERTEX
100
AcDbVertex
100
AcDb2dVertex
8
COFFR
10
339.853143
20
3.784055
30
0.0
0
VERTEX
100
AcDbVertex
100
AcDb2dVertex
8
COFFR
10
338.835643
20
3.803336
30
0.0
0
VERTEX
100
AcDbVertex
100
AcDb2dVertex
8
COFFR
10
337.818144
20
3.822618
30
0.0
0
VERTEX
100
AcDbVertex
100
AcDb2dVertex
8
COFFR
10
336.800643
20
3.841899
30
0.0
0
VERTEX
100
AcDbVertex
100
AcDb2dVertex
8
COFFR
10
335.783143
20
3.861181
30
0.0
0
VERTEX
100
AcDbVertex
100
AcDb2dVertex
8
COFFR
10
334.765643
20
3.880462
30
0.0
0
VERTEX
100
AcDbVertex
100
AcDb2dVertex
8
COFFR
10
333.748144
20
3.899745
30
0.0
0
VERTEX
100
AcDbVertex
100
AcDb2dVertex
8
COFFR
10
332.73059
20
3.918901
30
0.0
0
VERTEX
100
AcDbVertex
100
AcDb2dVertex
8
COFFR
10
331.713115
20
3.938116
30
0.0
0
VERTEX
100
AcDbVertex
100
AcDb2dVertex
8
COFFR
10
330.69566
20
3.957437
30
0.0
0
VERTEX
100
AcDbVertex
100
AcDb2dVertex
8
COFFR
10
329.678207
20
3.976871
30
0.0
0
VERTEX
100
AcDbVertex
100
AcDb2dVertex
8
COFFR
10
328.66095
20
3.996878
30
0.0
0
VERTEX
100
AcDbVertex
100
AcDb2dVertex
8
COFFR
10
327.643346
20
4.01664
30
0.0
0
VERTEX
100
AcDbVertex
100
AcDb2dVertex
8
COFFR
10
326.625578
20
4.035767
30
0.0
0
VERTEX
100
AcDbVertex
100
AcDb2dVertex
8
COFFR
10
325.6077
20
4.053999
30
0.0
0
VERTEX
100
AcDbVertex
100
AcDb2dVertex
8
COFFR
10
324.589372
20
4.070273
30
0.0
0
VERTEX
100
AcDbVertex
100
AcDb2dVertex
8
COFFR
10
323.571489
20
4.085639
30
0.0
0
VERTEX
100
AcDbVertex
100
AcDb2dVertex
8
COFFR
10
322.55371
20
4.100344
30
0.0
0
VERTEX
100
AcDbVertex
100
AcDb2dVertex
8
COFFR
10
321.536092
20
4.114768
30
0.0
0
VERTEX
100
AcDbVertex
100
AcDb2dVertex
8
COFFR
10
320.518811
20
4.129711
30
0.0
0
VERTEX
100
AcDbVertex
100
AcDb2dVertex
8
COFFR
10
319.501338
20
4.144718
30
0.0
0
VERTEX
100
AcDbVertex
100
AcDb2dVertex
8
COFFR
10
318.48386
20
4.159776
30
0.0
0
VERTEX
100
AcDbVertex
100
AcDb2dVertex
8
COFFR
10
317.466362
20
4.17484
30
0.0
0
VERTEX
100
AcDbVertex
100
AcDb2dVertex
8
COFFR
10
316.448785
20
4.189721
30
0.0
0
VERTEX
100
AcDbVertex
100
AcDb2dVertex
8
COFFR
10
315.431262
20
4.204548
30
0.0
0
VERTEX
100
AcDbVertex
100
AcDb2dVertex
8
COFFR
10
314.413735
20
4.219311
30
0.0
0
VERTEX
100
AcDbVertex
100
AcDb2dVertex
8
COFFR
10
313.396211
20
4.234018
30
0.0
0
VERTEX
100
AcDbVertex
100
AcDb2dVertex
8
COFFR
10
312.378684
20
4.248661
30
0.0
0
VERTEX
100
AcDbVertex
100
AcDb2dVertex
8
COFFR
10
311.361159
20
4.263245
30
0.0
0
VERTEX
100
AcDbVertex
100
AcDb2dVertex
8
COFFR
10
310.343631
20
4.277763
30
0.0
0
VERTEX
100
AcDbVertex
100
AcDb2dVertex
8
COFFR
10
309.326105
20
4.29222
30
0.0
0
VERTEX
100
AcDbVertex
100
AcDb2dVertex
8
COFFR
10
308.308576
20
4.306607
30
0.0
0
VERTEX
100
AcDbVertex
100
AcDb2dVertex
8
COFFR
10
307.291049
20
4.320931
30
0.0
0
VERTEX
100
AcDbVertex
100
AcDb2dVertex
8
COFFR
10
306.273518
20
4.335181
30
0.0
0
VERTEX
100
AcDbVertex
100
AcDb2dVertex
8
COFFR
10
305.255989
20
4.349363
30
0.0
0
VERTEX
100
AcDbVertex
100
AcDb2dVertex
8
COFFR
10
304.238456
20
4.363466
30
0.0
0
VERTEX
100
AcDbVertex
100
AcDb2dVertex
8
COFFR
10
303.220926
20
4.377498
30
0.0
0
VERTEX
100
AcDbVertex
100
AcDb2dVertex
8
COFFR
10
302.203392
20
4.391449
30
0.0
0
VERTEX
100
AcDbVertex
100
AcDb2dVertex
8
COFFR
10
301.18586
20
4.405325
30
0.0
0
VERTEX
100
AcDbVertex
100
AcDb2dVertex
8
COFFR
10
300.168324
20
4.419116
30
0.0
0
VERTEX
100
AcDbVertex
100
AcDb2dVertex
8
COFFR
10
299.150793
20
4.432833
30
0.0
0
VERTEX
100
AcDbVertex
100
AcDb2dVertex
8
COFFR
10
298.133258
20
4.446467
30
0.0
0
VERTEX
100
AcDbVertex
100
AcDb2dVertex
8
COFFR
10
297.115727
20
4.460026
30
0.0
0
VERTEX
100
AcDbVertex
100
AcDb2dVertex
8
COFFR
10
296.098193
20
4.473507
30
0.0
0
VERTEX
100
AcDbVertex
100
AcDb2dVertex
8
COFFR
10
295.080661
20
4.486912
30
0.0
0
VERTEX
100
AcDbVertex
100
AcDb2dVertex
8
COFFR
10
294.063124
20
4.500229
30
0.0
0
VERTEX
100
AcDbVertex
100
AcDb2dVertex
8
COFFR
10
293.04559
20
4.513466
30
0.0
0
VERTEX
100
AcDbVertex
100
AcDb2dVertex
8
COFFR
10
292.027881
20
4.526208
30
0.0
0
VERTEX
100
AcDbVertex
100
AcDb2dVertex
8
COFFR
10
291.010424
20
4.539051
30
0.0
0
VERTEX
100
AcDbVertex
100
AcDb2dVertex
8
COFFR
10
289.993031
20
4.552148
30
0.0
0
VERTEX
100
AcDbVertex
100
AcDb2dVertex
8
COFFR
10
288.975648
20
4.565521
30
0.0
0
VERTEX
100
AcDbVertex
100
AcDb2dVertex
8
COFFR
10
287.958895
20
4.580663
30
0.0
0
VERTEX
100
AcDbVertex
100
AcDb2dVertex
8
COFFR
10
286.941027
20
4.594934
30
0.0
0
VERTEX
100
AcDbVertex
100
AcDb2dVertex
8
COFFR
10
285.922629
20
4.607081
30
0.0
0
VERTEX
100
AcDbVertex
100
AcDb2dVertex
8
COFFR
10
284.903882
20
4.616276
30
0.0
0
VERTEX
100
AcDbVertex
100
AcDb2dVertex
8
COFFR
10
283.883684
20
4.619082
30
0.0
0
VERTEX
100
AcDbVertex
100
AcDb2dVertex
8
COFFR
10
282.865063
20
4.618932
30
0.0
0
VERTEX
100
AcDbVertex
100
AcDb2dVertex
8
COFFR
10
281.84846
20
4.616658
30
0.0
0
VERTEX
100
AcDbVertex
100
AcDb2dVertex
8
COFFR
10
280.831329
20
4.61351
30
0.0
0
VERTEX
100
AcDbVertex
100
AcDb2dVertex
8
COFFR
10
279.813082
20
4.612132
30
0.0
0
VERTEX
100
AcDbVertex
100
AcDb2dVertex
8
COFFR
10
278.795464
20
4.611034
30
0.0
0
VERTEX
100
AcDbVertex
100
AcDb2dVertex
8
COFFR
10
277.777852
20
4.610201
30
0.0
0
VERTEX
100
AcDbVertex
100
AcDb2dVertex
8
COFFR
10
276.760304
20
4.609481
30
0.0
0
VERTEX
100
AcDbVertex
100
AcDb2dVertex
8
COFFR
10
275.743002
20
4.608294
30
0.0
0
VERTEX
100
AcDbVertex
100
AcDb2dVertex
8
COFFR
10
274.72553
20
4.607038
30
0.0
0
VERTEX
100
AcDbVertex
100
AcDb2dVertex
8
COFFR
10
273.708061
20
4.605709
30
0.0
0
VERTEX
100
AcDbVertex
100
AcDb2dVertex
8
COFFR
10
272.69059
20
4.604313
30
0.0
0
VERTEX
100
AcDbVertex
100
AcDb2dVertex
8
COFFR
10
271.673122
20
4.60284
30
0.0
0
VERTEX
100
AcDbVertex
100
AcDb2dVertex
8
COFFR
10
270.655649
20
4.601304
30
0.0
0
VERTEX
100
AcDbVertex
100
AcDb2dVertex
8
COFFR
10
269.638176
20
4.599703
30
0.0
0
VERTEX
100
AcDbVertex
100
AcDb2dVertex
8
COFFR
10
268.6207
20
4.598045
30
0.0
0
VERTEX
100
AcDbVertex
100
AcDb2dVertex
8
COFFR
10
267.603223
20
4.596333
30
0.0
0
VERTEX
100
AcDbVertex
100
AcDb2dVertex
8
COFFR
10
266.585745
20
4.594569
30
0.0
0
VERTEX
100
AcDbVertex
100
AcDb2dVertex
8
COFFR
10
265.568268
20
4.592751
30
0.0
0
VERTEX
100
AcDbVertex
100
AcDb2dVertex
8
COFFR
10
264.550789
20
4.590881
30
0.0
0
VERTEX
100
AcDbVertex
100
AcDb2dVertex
8
COFFR
10
263.533313
20
4.588956
30
0.0
0
VERTEX
100
AcDbVertex
100
AcDb2dVertex
8
COFFR
10
262.515833
20
4.586984
30
0.0
0
VERTEX
100
AcDbVertex
100
AcDb2dVertex
8
COFFR
10
261.498353
20
4.584965
30
0.0
0
VERTEX
100
AcDbVertex
100
AcDb2dVertex
8
COFFR
10
260.48087
20
4.582904
30
0.0
0
VERTEX
100
AcDbVertex
100
AcDb2dVertex
8
COFFR
10
259.463387
20
4.580804
30
0.0
0
VERTEX
100
AcDbVertex
100
AcDb2dVertex
8
COFFR
10
258.445903
20
4.578666
30
0.0
0
VERTEX
100
AcDbVertex
100
AcDb2dVertex
8
COFFR
10
257.42842
20
4.576489
30
0.0
0
VERTEX
100
AcDbVertex
100
AcDb2dVertex
8
COFFR
10
256.410935
20
4.574276
30
0.0
0
VERTEX
100
AcDbVertex
100
AcDb2dVertex
8
COFFR
10
255.393451
20
4.572023
30
0.0
0
VERTEX
100
AcDbVertex
100
AcDb2dVertex
8
COFFR
10
254.375965
20
4.569738
30
0.0
0
VERTEX
100
AcDbVertex
100
AcDb2dVertex
8
COFFR
10
253.358478
20
4.567421
30
0.0
0
VERTEX
100
AcDbVertex
100
AcDb2dVertex
8
COFFR
10
252.34099
20
4.565078
30
0.0
0
VERTEX
100
AcDbVertex
100
AcDb2dVertex
8
COFFR
10
251.323533
20
4.562632
30
0.0
0
VERTEX
100
AcDbVertex
100
AcDb2dVertex
8
COFFR
10
250.306027
20
4.5602
30
0.0
0
VERTEX
100
AcDbVertex
100
AcDb2dVertex
8
COFFR
10
249.288509
20
4.557812
30
0.0
0
VERTEX
100
AcDbVertex
100
AcDb2dVertex
8
COFFR
10
248.270988
20
4.555472
30
0.0
0
VERTEX
100
AcDbVertex
100
AcDb2dVertex
8
COFFR
10
247.253346
20
4.55347
30
0.0
0
VERTEX
100
AcDbVertex
100
AcDb2dVertex
8
COFFR
10
246.235917
20
4.5513
30
0.0
0
VERTEX
100
AcDbVertex
100
AcDb2dVertex
8
COFFR
10
245.218588
20
4.548723
30
0.0
0
VERTEX
100
AcDbVertex
100
AcDb2dVertex
8
COFFR
10
244.201326
20
4.545582
30
0.0
0
VERTEX
100
AcDbVertex
100
AcDb2dVertex
8
COFFR
10
243.184342
20
4.541221
30
0.0
0
VERTEX
100
AcDbVertex
100
AcDb2dVertex
8
COFFR
10
242.16708
20
4.536297
30
0.0
0
VERTEX
100
AcDbVertex
100
AcDb2dVertex
8
COFFR
10
241.14975
20
4.530969
30
0.0
0
VERTEX
100
AcDbVertex
100
AcDb2dVertex
8
COFFR
10
240.13232
20
4.525476
30
0.0
0
VERTEX
100
AcDbVertex
100
AcDb2dVertex
8
COFFR
10
239.114676
20
4.520323
30
0.0
0
VERTEX
100
AcDbVertex
100
AcDb2dVertex
8
COFFR
10
238.097152
20
4.515227
30
0.0
0
VERTEX
100
AcDbVertex
100
AcDb2dVertex
8
COFFR
10
237.07963
20
4.510184
30
0.0
0
VERTEX
100
AcDbVertex
100
AcDb2dVertex
8
COFFR
10
236.062119
20
4.505166
30
0.0
0
VERTEX
100
AcDbVertex
100
AcDb2dVertex
8
COFFR
10
235.044656
20
4.500062
30
0.0
0
VERTEX
100
AcDbVertex
100
AcDb2dVertex
8
COFFR
10
234.02716
20
4.494949
30
0.0
0
VERTEX
100
AcDbVertex
100
AcDb2dVertex
8
COFFR
10
233.009663
20
4.489826
30
0.0
0
VERTEX
100
AcDbVertex
100
AcDb2dVertex
8
COFFR
10
231.992167
20
4.484694
30
0.0
0
VERTEX
100
AcDbVertex
100
AcDb2dVertex
8
COFFR
10
230.97467
20
4.479556
30
0.0
0
VERTEX
100
AcDbVertex
100
AcDb2dVertex
8
COFFR
10
229.957175
20
4.474406
30
0.0
0
VERTEX
100
AcDbVertex
100
AcDb2dVertex
8
COFFR
10
228.939681
20
4.469241
30
0.0
0
VERTEX
100
AcDbVertex
100
AcDb2dVertex
8
COFFR
10
227.922188
20
4.464059
30
0.0
0
VERTEX
100
AcDbVertex
100
AcDb2dVertex
8
COFFR
10
226.904699
20
4.458853
30
0.0
0
VERTEX
100
AcDbVertex
100
AcDb2dVertex
8
COFFR
10
225.887206
20
4.45363
30
0.0
0
VERTEX
100
AcDbVertex
100
AcDb2dVertex
8
COFFR
10
224.869712
20
4.448391
30
0.0
0
VERTEX
100
AcDbVertex
100
AcDb2dVertex
8
COFFR
10
223.852218
20
4.44314
30
0.0
0
VERTEX
100
AcDbVertex
100
AcDb2dVertex
8
COFFR
10
222.83472
20
4.437882
30
0.0
0
VERTEX
100
AcDbVertex
100
AcDb2dVertex
8
COFFR
10
221.817226
20
4.432611
30
0.0
0
VERTEX
100
AcDbVertex
100
AcDb2dVertex
8
COFFR
10
220.799733
20
4.427323
30
0.0
0
VERTEX
100
AcDbVertex
100
AcDb2dVertex
8
COFFR
10
219.782241
20
4.422016
30
0.0
0
VERTEX
100
AcDbVertex
100
AcDb2dVertex
8
COFFR
10
218.764752
20
4.416683
30
0.0
0
VERTEX
100
AcDbVertex
100
AcDb2dVertex
8
COFFR
10
217.747261
20
4.41133
30
0.0
0
VERTEX
100
AcDbVertex
100
AcDb2dVertex
8
COFFR
10
216.729769
20
4.405958
30
0.0
0
VERTEX
100
AcDbVertex
100
AcDb2dVertex
8
COFFR
10
215.712277
20
4.400567
30
0.0
0
VERTEX
100
AcDbVertex
100
AcDb2dVertex
8
COFFR
10
214.694782
20
4.395163
30
0.0
0
VERTEX
100
AcDbVertex
100
AcDb2dVertex
8
COFFR
10
213.67729
20
4.389741
30
0.0
0
VERTEX
100
AcDbVertex
100
AcDb2dVertex
8
COFFR
10
212.659799
20
4.384298
30
0.0
0
VERTEX
100
AcDbVertex
100
AcDb2dVertex
8
COFFR
10
211.642308
20
4.378833
30
0.0
0
VERTEX
100
AcDbVertex
100
AcDb2dVertex
8
COFFR
10
210.624875
20
4.37321
30
0.0
0
VERTEX
100
AcDbVertex
100
AcDb2dVertex
8
COFFR
10
209.607359
20
4.367625
30
0.0
0
VERTEX
100
AcDbVertex
100
AcDb2dVertex
8
COFFR
10
208.58982
20
4.362131
30
0.0
0
VERTEX
100
AcDbVertex
100
AcDb2dVertex
8
COFFR
10
207.57228
20
4.356733
30
0.0
0
VERTEX
100
AcDbVertex
100
AcDb2dVertex
8
COFFR
10
206.554527
20
4.351933
30
0.0
0
VERTEX
100
AcDbVertex
100
AcDb2dVertex
8
COFFR
10
205.537149
20
4.346844
30
0.0
0
VERTEX
100
AcDbVertex
100
AcDb2dVertex
8
COFFR
10
204.519948
20
4.341048
30
0.0
0
VERTEX
100
AcDbVertex
100
AcDb2dVertex
8
COFFR
10
203.502864
20
4.334266
30
0.0
0
VERTEX
100
AcDbVertex
100
AcDb2dVertex
8
COFFR
10
202.486265
20
4.325351
30
0.0
0
VERTEX
100
AcDbVertex
100
AcDb2dVertex
8
COFFR
10
201.469182
20
4.315448
30
0.0
0
VERTEX
100
AcDbVertex
100
AcDb2dVertex
8
COFFR
10
200.451982
20
4.304836
30
0.0
0
VERTEX
100
AcDbVertex
100
AcDb2dVertex
8
COFFR
10
199.434606
20
4.29393
30
0.0
0
VERTEX
100
AcDbVertex
100
AcDb2dVertex
8
COFFR
10
198.416856
20
4.283616
30
0.0
0
VERTEX
100
AcDbVertex
100
AcDb2dVertex
8
COFFR
10
197.399318
20
4.273393
30
0.0
0
VERTEX
100
AcDbVertex
100
AcDb2dVertex
8
COFFR
10
196.381782
20
4.263254
30
0.0
0
VERTEX
100
AcDbVertex
100
AcDb2dVertex
8
COFFR
10
195.364268
20
4.253149
30
0.0
0
VERTEX
100
AcDbVertex
100
AcDb2dVertex
8
COFFR
10
194.346836
20
4.242883
30
0.0
0
VERTEX
100
AcDbVertex
100
AcDb2dVertex
8
COFFR
10
193.329347
20
4.232588
30
0.0
0
VERTEX
100
AcDbVertex
100
AcDb2dVertex
8
COFFR
10
192.311859
20
4.222267
30
0.0
0
VERTEX
100
AcDbVertex
100
AcDb2dVertex
8
COFFR
10
191.29437
20
4.21192
30
0.0
0
VERTEX
100
AcDbVertex
100
AcDb2dVertex
8
COFFR
10
190.27688
20
4.201549
30
0.0
0
VERTEX
100
AcDbVertex
100
AcDb2dVertex
8
COFFR
10
189.259391
20
4.191153
30
0.0
0
VERTEX
100
AcDbVertex
100
AcDb2dVertex
8
COFFR
10
188.241901
20
4.180731
30
0.0
0
VERTEX
100
AcDbVertex
100
AcDb2dVertex
8
COFFR
10
187.224412
20
4.170284
30
0.0
0
VERTEX
100
AcDbVertex
100
AcDb2dVertex
8
COFFR
10
186.206923
20
4.159811
30
0.0
0
VERTEX
100
AcDbVertex
100
AcDb2dVertex
8
COFFR
10
185.189434
20
4.149313
30
0.0
0
VERTEX
100
AcDbVertex
100
AcDb2dVertex
8
COFFR
10
184.171944
20
4.138789
30
0.0
0
VERTEX
100
AcDbVertex
100
AcDb2dVertex
8
COFFR
10
183.154455
20
4.128241
30
0.0
0
VERTEX
100
AcDbVertex
100
AcDb2dVertex
8
COFFR
10
182.136965
20
4.117669
30
0.0
0
VERTEX
100
AcDbVertex
100
AcDb2dVertex
8
COFFR
10
181.119476
20
4.10707
30
0.0
0
VERTEX
100
AcDbVertex
100
AcDb2dVertex
8
COFFR
10
180.101988
20
4.096444
30
0.0
0
VERTEX
100
AcDbVertex
100
AcDb2dVertex
8
COFFR
10
179.084499
20
4.085791
30
0.0
0
VERTEX
100
AcDbVertex
100
AcDb2dVertex
8
COFFR
10
178.067013
20
4.075106
30
0.0
0
VERTEX
100
AcDbVertex
100
AcDb2dVertex
8
COFFR
10
177.049524
20
4.064393
30
0.0
0
VERTEX
100
AcDbVertex
100
AcDb2dVertex
8
COFFR
10
176.032035
20
4.053655
30
0.0
0
VERTEX
100
AcDbVertex
100
AcDb2dVertex
8
COFFR
10
175.014545
20
4.042893
30
0.0
0
VERTEX
100
AcDbVertex
100
AcDb2dVertex
8
COFFR
10
173.997054
20
4.032111
30
0.0
0
VERTEX
100
AcDbVertex
100
AcDb2dVertex
8
COFFR
10
172.979563
20
4.021306
30
0.0
0
VERTEX
100
AcDbVertex
100
AcDb2dVertex
8
COFFR
10
171.962073
20
4.010479
30
0.0
0
VERTEX
100
AcDbVertex
100
AcDb2dVertex
8
COFFR
10
170.944582
20
3.999629
30
0.0
0
VERTEX
100
AcDbVertex
100
AcDb2dVertex
8
COFFR
10
169.927129
20
3.988667
30
0.0
0
VERTEX
100
AcDbVertex
100
AcDb2dVertex
8
COFFR
10
168.909622
20
3.977724
30
0.0
0
VERTEX
100
AcDbVertex
100
AcDb2dVertex
8
COFFR
10
167.8921
20
3.966833
30
0.0
0
VERTEX
100
AcDbVertex
100
AcDb2dVertex
8
COFFR
10
166.874576
20
3.955998
30
0.0
0
VERTEX
100
AcDbVertex
100
AcDb2dVertex
8
COFFR
10
165.856914
20
3.945548
30
0.0
0
VERTEX
100
AcDbVertex
100
AcDb2dVertex
8
COFFR
10
164.839495
20
3.934904
30
0.0
0
VERTEX
100
AcDbVertex
100
AcDb2dVertex
8
COFFR
10
163.822191
20
3.923796
30
0.0
0
VERTEX
100
AcDbVertex
100
AcDb2dVertex
8
COFFR
10
162.804964
20
3.912042
30
0.0
0
VERTEX
100
AcDbVertex
100
AcDb2dVertex
8
COFFR
10
161.788052
20
3.898895
30
0.0
0
VERTEX
100
AcDbVertex
100
AcDb2dVertex
8
COFFR
10
160.770824
20
3.885103
30
0.0
0
VERTEX
100
AcDbVertex
100
AcDb2dVertex
8
COFFR
10
159.75352
20
3.870849
30
0.0
0
VERTEX
100
AcDbVertex
100
AcDb2dVertex
8
COFFR
10
158.736101
20
3.856402
30
0.0
0
VERTEX
100
AcDbVertex
100
AcDb2dVertex
8
COFFR
10
157.718438
20
3.842343
30
0.0
0
VERTEX
100
AcDbVertex
100
AcDb2dVertex
8
COFFR
10
156.700913
20
3.828343
30
0.0
0
VERTEX
100
AcDbVertex
100
AcDb2dVertex
8
COFFR
10
155.683388
20
3.8144
30
0.0
0
VERTEX
100
AcDbVertex
100
AcDb2dVertex
8
COFFR
10
154.665878
20
3.800481
30
0.0
0
VERTEX
100
AcDbVertex
100
AcDb2dVertex
8
COFFR
10
153.648422
20
3.786459
30
0.0
0
VERTEX
100
AcDbVertex
100
AcDb2dVertex
8
COFFR
10
152.630928
20
3.772423
30
0.0
0
VERTEX
100
AcDbVertex
100
AcDb2dVertex
8
COFFR
10
151.613433
20
3.758375
30
0.0
0
VERTEX
100
AcDbVertex
100
AcDb2dVertex
8
COFFR
10
150.595938
20
3.744315
30
0.0
0
VERTEX
100
AcDbVertex
100
AcDb2dVertex
8
COFFR
10
149.578441
20
3.730248
30
0.0
0
VERTEX
100
AcDbVertex
100
AcDb2dVertex
8
COFFR
10
148.560945
20
3.716171
30
0.0
0
VERTEX
100
AcDbVertex
100
AcDb2dVertex
8
COFFR
10
147.543449
20
3.702084
30
0.0
0
VERTEX
100
AcDbVertex
100
AcDb2dVertex
8
COFFR
10
146.525954
20
3.687986
30
0.0
0
VERTEX
100
AcDbVertex
100
AcDb2dVertex
8
COFFR
10
145.508459
20
3.673877
30
0.0
0
VERTEX
100
AcDbVertex
100
AcDb2dVertex
8
COFFR
10
144.490963
20
3.659757
30
0.0
0
VERTEX
100
AcDbVertex
100
AcDb2dVertex
8
COFFR
10
143.473466
20
3.64563
30
0.0
0
VERTEX
100
AcDbVertex
100
AcDb2dVertex
8
COFFR
10
142.45597
20
3.631495
30
0.0
0
VERTEX
100
AcDbVertex
100
AcDb2dVertex
8
COFFR
10
141.438471
20
3.617356
30
0.0
0
VERTEX
100
AcDbVertex
100
AcDb2dVertex
8
COFFR
10
140.420973
20
3.603213
30
0.0
0
VERTEX
100
AcDbVertex
100
AcDb2dVertex
8
COFFR
10
139.403474
20
3.589068
30
0.0
0
VERTEX
100
AcDbVertex
100
AcDb2dVertex
8
COFFR
10
138.385975
20
3.574922
30
0.0
0
VERTEX
100
AcDbVertex
100
AcDb2dVertex
8
COFFR
10
137.368473
20
3.560777
30
0.0
0
VERTEX
100
AcDbVertex
100
AcDb2dVertex
8
COFFR
10
136.350974
20
3.546633
30
0.0
0
VERTEX
100
AcDbVertex
100
AcDb2dVertex
8
COFFR
10
135.333473
20
3.53249
30
0.0
0
VERTEX
100
AcDbVertex
100
AcDb2dVertex
8
COFFR
10
134.315973
20
3.518349
30
0.0
0
VERTEX
100
AcDbVertex
100
AcDb2dVertex
8
COFFR
10
133.298471
20
3.50421
30
0.0
0
VERTEX
100
AcDbVertex
100
AcDb2dVertex
8
COFFR
10
132.28097
20
3.490074
30
0.0
0
VERTEX
100
AcDbVertex
100
AcDb2dVertex
8
COFFR
10
131.263468
20
3.475943
30
0.0
0
VERTEX
100
AcDbVertex
100
AcDb2dVertex
8
COFFR
10
130.245966
20
3.461816
30
0.0
0
VERTEX
100
AcDbVertex
100
AcDb2dVertex
8
COFFR
10
129.228404
20
3.447837
30
0.0
0
VERTEX
100
AcDbVertex
100
AcDb2dVertex
8
COFFR
10
128.210928
20
3.433801
30
0.0
0
VERTEX
100
AcDbVertex
100
AcDb2dVertex
8
COFFR
10
127.193473
20
3.419659
30
0.0
0
VERTEX
100
AcDbVertex
100
AcDb2dVertex
8
COFFR
10
126.176019
20
3.405406
30
0.0
0
VERTEX
100
AcDbVertex
100
AcDb2dVertex
8
COFFR
10
125.158783
20
3.390528
30
0.0
0
VERTEX
100
AcDbVertex
100
AcDb2dVertex
8
COFFR
10
124.14116
20
3.375941
30
0.0
0
VERTEX
100
AcDbVertex
100
AcDb2dVertex
8
COFFR
10
123.123353
20
3.362083
30
0.0
0
VERTEX
100
AcDbVertex
100
AcDb2dVertex
8
COFFR
10
122.105424
20
3.349241
30
0.0
0
VERTEX
100
AcDbVertex
100
AcDb2dVertex
8
COFFR
10
121.08699
20
3.338612
30
0.0
0
VERTEX
100
AcDbVertex
100
AcDb2dVertex
8
COFFR
10
120.069061
20
3.328997
30
0.0
0
VERTEX
100
AcDbVertex
100
AcDb2dVertex
8
COFFR
10
119.051253
20
3.32011
30
0.0
0
VERTEX
100
AcDbVertex
100
AcDb2dVertex
8
COFFR
10
118.03363
20
3.311515
30
0.0
0
VERTEX
100
AcDbVertex
100
AcDb2dVertex
8
COFFR
10
117.016394
20
3.302294
30
0.0
0
VERTEX
100
AcDbVertex
100
AcDb2dVertex
8
COFFR
10
115.998939
20
3.292966
30
0.0
0
VERTEX
100
AcDbVertex
100
AcDb2dVertex
8
COFFR
10
114.981481
20
3.283541
30
0.0
0
VERTEX
100
AcDbVertex
100
AcDb2dVertex
8
COFFR
10
113.963999
20
3.274071
30
0.0
0
VERTEX
100
AcDbVertex
100
AcDb2dVertex
8
COFFR
10
112.946431
20
3.264763
30
0.0
0
VERTEX
100
AcDbVertex
100
AcDb2dVertex
8
COFFR
10
111.928921
20
3.255478
30
0.0
0
VERTEX
100
AcDbVertex
100
AcDb2dVertex
8
COFFR
10
110.911409
20
3.246222
30
0.0
0
VERTEX
100
AcDbVertex
100
AcDb2dVertex
8
COFFR
10
109.893898
20
3.236993
30
0.0
0
VERTEX
100
AcDbVertex
100
AcDb2dVertex
8
COFFR
10
108.876382
20
3.227801
30
0.0
0
VERTEX
100
AcDbVertex
100
AcDb2dVertex
8
COFFR
10
107.85887
20
3.218638
30
0.0
0
VERTEX
100
AcDbVertex
100
AcDb2dVertex
8
COFFR
10
106.841356
20
3.209507
30
0.0
0
VERTEX
100
AcDbVertex
100
AcDb2dVertex
8
COFFR
10
105.823845
20
3.200404
30
0.0
0
VERTEX
100
AcDbVertex
100
AcDb2dVertex
8
COFFR
10
104.806332
20
3.191329
30
0.0
0
VERTEX
100
AcDbVertex
100
AcDb2dVertex
8
COFFR
10
103.78882
20
3.182285
30
0.0
0
VERTEX
100
AcDbVertex
100
AcDb2dVertex
8
COFFR
10
102.771305
20
3.173276
30
0.0
0
VERTEX
100
AcDbVertex
100
AcDb2dVertex
8
COFFR
10
101.75379
20
3.164304
30
0.0
0
VERTEX
100
AcDbVertex
100
AcDb2dVertex
8
COFFR
10
100.736272
20
3.155373
30
0.0
0
VERTEX
100
AcDbVertex
100
AcDb2dVertex
8
COFFR
10
99.718754
20
3.146485
30
0.0
0
VERTEX
100
AcDbVertex
100
AcDb2dVertex
8
COFFR
10
98.701233
20
3.137645
30
0.0
0
VERTEX
100
AcDbVertex
100
AcDb2dVertex
8
COFFR
10
97.683711
20
3.128859
30
0.0
0
VERTEX
100
AcDbVertex
100
AcDb2dVertex
8
COFFR
10
96.666191
20
3.12012
30
0.0
0
VERTEX
100
AcDbVertex
100
AcDb2dVertex
8
COFFR
10
95.648666
20
3.11144
30
0.0
0
VERTEX
100
AcDbVertex
100
AcDb2dVertex
8
COFFR
10
94.63114
20
3.10282
30
0.0
0
VERTEX
100
AcDbVertex
100
AcDb2dVertex
8
COFFR
10
93.613614
20
3.094264
30
0.0
0
VERTEX
100
AcDbVertex
100
AcDb2dVertex
8
COFFR
10
92.59609
20
3.085763
30
0.0
0
VERTEX
100
AcDbVertex
100
AcDb2dVertex
8
COFFR
10
91.578561
20
3.07733
30
0.0
0
VERTEX
100
AcDbVertex
100
AcDb2dVertex
8
COFFR
10
90.561031
20
3.06897
30
0.0
0
VERTEX
100
AcDbVertex
100
AcDb2dVertex
8
COFFR
10
89.543461
20
3.060775
30
0.0
0
VERTEX
100
AcDbVertex
100
AcDb2dVertex
8
COFFR
10
88.525835
20
3.052877
30
0.0
0
VERTEX
100
AcDbVertex
100
AcDb2dVertex
8
COFFR
10
87.508341
20
3.044967
30
0.0
0
VERTEX
100
AcDbVertex
100
AcDb2dVertex
8
COFFR
10
86.490949
20
3.036801
30
0.0
0
VERTEX
100
AcDbVertex
100
AcDb2dVertex
8
COFFR
10
85.473716
20
3.028002
30
0.0
0
VERTEX
100
AcDbVertex
100
AcDb2dVertex
8
COFFR
10
84.45666
20
3.018152
30
0.0
0
VERTEX
100
AcDbVertex
100
AcDb2dVertex
8
COFFR
10
83.43893
20
3.008847
30
0.0
0
VERTEX
100
AcDbVertex
100
AcDb2dVertex
8
COFFR
10
82.420507
20
3.001729
30
0.0
0
VERTEX
100
AcDbVertex
100
AcDb2dVertex
8
COFFR
10
81.401371
20
2.998483
30
0.0
0
VERTEX
100
AcDbVertex
100
AcDb2dVertex
8
COFFR
10
80.383174
20
3.00008
30
0.0
0
VERTEX
100
AcDbVertex
100
AcDb2dVertex
8
COFFR
10
79.367308
20
3.005544
30
0.0
0
VERTEX
100
AcDbVertex
100
AcDb2dVertex
8
COFFR
10
78.350728
20
3.013187
30
0.0
0
VERTEX
100
AcDbVertex
100
AcDb2dVertex
8
COFFR
10
77.333454
20
3.021365
30
0.0
0
VERTEX
100
AcDbVertex
100
AcDb2dVertex
8
COFFR
10
76.315504
20
3.028479
30
0.0
0
VERTEX
100
AcDbVertex
100
AcDb2dVertex
8
COFFR
10
75.297737
20
3.034961
30
0.0
0
VERTEX
100
AcDbVertex
100
AcDb2dVertex
8
COFFR
10
74.280137
20
3.041205
30
0.0
0
VERTEX
100
AcDbVertex
100
AcDb2dVertex
8
COFFR
10
73.262647
20
3.047473
30
0.0
0
VERTEX
100
AcDbVertex
100
AcDb2dVertex
8
COFFR
10
72.245292
20
3.054084
30
0.0
0
VERTEX
100
AcDbVertex
100
AcDb2dVertex
8
COFFR
10
71.227887
20
3.060919
30
0.0
0
VERTEX
100
AcDbVertex
100
AcDb2dVertex
8
COFFR
10
70.210446
20
3.067895
30
0.0
0
VERTEX
100
AcDbVertex
100
AcDb2dVertex
8
COFFR
10
69.193077
20
3.075181
30
0.0
0
VERTEX
100
AcDbVertex
100
AcDb2dVertex
8
COFFR
10
68.17581
20
3.083019
30
0.0
0
VERTEX
100
AcDbVertex
100
AcDb2dVertex
8
COFFR
10
67.158304
20
3.090842
30
0.0
0
VERTEX
100
AcDbVertex
100
AcDb2dVertex
8
COFFR
10
66.14061
20
3.098205
30
0.0
0
VERTEX
100
AcDbVertex
100
AcDb2dVertex
8
COFFR
10
65.122626
20
3.104422
30
0.0
0
VERTEX
100
AcDbVertex
100
AcDb2dVertex
8
COFFR
10
64.104318
20
3.108728
30
0.0
0
VERTEX
100
AcDbVertex
100
AcDb2dVertex
8
COFFR
10
63.087254
20
3.114064
30
0.0
0
VERTEX
100
AcDbVertex
100
AcDb2dVertex
8
COFFR
10
62.071466
20
3.123453
30
0.0
0
VERTEX
100
AcDbVertex
100
AcDb2dVertex
8
COFFR
10
61.056991
20
3.140001
30
0.0
0
VERTEX
100
AcDbVertex
100
AcDb2dVertex
8
COFFR
10
60.043269
20
3.165488
30
0.0
0
VERTEX
100
AcDbVertex
100
AcDb2dVertex
8
COFFR
10
59.028822
20
3.198205
30
0.0
0
VERTEX
100
AcDbVertex
100
AcDb2dVertex
8
COFFR
10
58.013097
20
3.235127
30
0.0
0
VERTEX
100
AcDbVertex
100
AcDb2dVertex
8
COFFR
10
56.996127
20
3.273309
30
0.0
0
VERTEX
100
AcDbVertex
100
AcDb2dVertex
8
COFFR
10
55.977923
20
3.309833
30
0.0
0
VERTEX
100
AcDbVertex
100
AcDb2dVertex
8
COFFR
10
54.960082
20
3.345547
30
0.0
0
VERTEX
100
AcDbVertex
100
AcDb2dVertex
8
COFFR
10
53.942554
20
3.381192
30
0.0
0
VERTEX
100
AcDbVertex
100
AcDb2dVertex
8
COFFR
10
52.925234
20
3.417264
30
0.0
0
VERTEX
100
AcDbVertex
100
AcDb2dVertex
8
COFFR
10
51.908141
20
3.454296
30
0.0
0
VERTEX
100
AcDbVertex
100
AcDb2dVertex
8
COFFR
10
50.890993
20
3.492163
30
0.0
0
VERTEX
100
AcDbVertex
100
AcDb2dVertex
8
COFFR
10
49.873792
20
3.530739
30
0.0
0
VERTEX
100
AcDbVertex
100
AcDb2dVertex
8
COFFR
10
48.856746
20
3.570388
30
0.0
0
VERTEX
100
AcDbVertex
100
AcDb2dVertex
8
COFFR
10
47.839887
20
3.611555
30
0.0
0
VERTEX
100
AcDbVertex
100
AcDb2dVertex
8
COFFR
10
46.822563
20
3.65314
30
0.0
0
VERTEX
100
AcDbVertex
100
AcDb2dVertex
8
COFFR
10
45.804849
20
3.694222
30
0.0
0
VERTEX
100
AcDbVertex
100
AcDb2dVertex
8
COFFR
10
44.786525
20
3.733356
30
0.0
0
VERTEX
100
AcDbVertex
100
AcDb2dVertex
8
COFFR
10
43.767487
20
3.768851
30
0.0
0
VERTEX
100
AcDbVertex
100
AcDb2dVertex
8
COFFR
10
42.751055
20
3.806862
30
0.0
0
VERTEX
100
AcDbVertex
100
AcDb2dVertex
8
COFFR
10
41.737261
20
3.853631
30
0.0
0
VERTEX
100
AcDbVertex
100
AcDb2dVertex
8
COFFR
10
40.726221
20
3.915668
30
0.0
0
VERTEX
100
AcDbVertex
100
AcDb2dVertex
8
COFFR
10
39.716786
20
3.996771
30
0.0
0
VERTEX
100
AcDbVertex
100
AcDb2dVertex
8
COFFR
10
38.705579
20
4.092779
30
0.0
0
VERTEX
100
AcDbVertex
100
AcDb2dVertex
8
COFFR
10
37.691456
20
4.196817
30
0.0
0
VERTEX
100
AcDbVertex
100
AcDb2dVertex
8
COFFR
10
36.674463
20
4.302094
30
0.0
0
VERTEX
100
AcDbVertex
100
AcDb2dVertex
8
COFFR
10
35.654703
20
4.402059
30
0.0
0
VERTEX
100
AcDbVertex
100
AcDb2dVertex
8
COFFR
10
34.636223
20
4.499685
30
0.0
0
VERTEX
100
AcDbVertex
100
AcDb2dVertex
8
COFFR
10
33.619033
20
4.598027
30
0.0
0
VERTEX
100
AcDbVertex
100
AcDb2dVertex
8
COFFR
10
32.602872
20
4.699526
30
0.0
0
VERTEX
100
AcDbVertex
100
AcDb2dVertex
8
COFFR
10
31.587523
20
4.806107
30
0.0
0
VERTEX
100
AcDbVertex
100
AcDb2dVertex
8
COFFR
10
30.57217
20
4.91777
30
0.0
0
VERTEX
100
AcDbVertex
100
AcDb2dVertex
8
COFFR
10
29.556588
20
5.033975
30
0.0
0
VERTEX
100
AcDbVertex
100
AcDb2dVertex
8
COFFR
10
28.541404
20
5.15566
30
0.0
0
VERTEX
100
AcDbVertex
100
AcDb2dVertex
8
COFFR
10
27.526625
20
5.283778
30
0.0
0
VERTEX
100
AcDbVertex
100
AcDb2dVertex
8
COFFR
10
26.509862
20
5.413676
30
0.0
0
VERTEX
100
AcDbVertex
100
AcDb2dVertex
8
COFFR
10
25.491189
20
5.54083
30
0.0
0
VERTEX
100
AcDbVertex
100
AcDb2dVertex
8
COFFR
10
24.471924
20
5.663814
30
0.0
0
VERTEX
100
AcDbVertex
100
AcDb2dVertex
8
COFFR
10
23.442429
20
5.758544
30
0.0
0
VERTEX
100
AcDbVertex
100
AcDb2dVertex
8
COFFR
10
22.429243
20
5.863247
30
0.0
0
VERTEX
100
AcDbVertex
100
AcDb2dVertex
8
COFFR
10
21.423005
20
5.994492
30
0.0
0
VERTEX
100
AcDbVertex
100
AcDb2dVertex
8
COFFR
10
20.421183
20
6.162727
30
0.0
0
VERTEX
100
AcDbVertex
100
AcDb2dVertex
8
COFFR
10
19.43732
20
6.409987
30
0.0
0
SEQEND
0
POLYLINE
5
 503
100
AcDbEntity
8
COFFR
66
 1
100
AcDb2dPolyline
70
 0
0
VERTEX
100
AcDbVertex
100
AcDb2dVertex
8
COFFR
10
394.79
20
3.596034
30
0.0
0
VERTEX
100
AcDbVertex
100
AcDb2dVertex
8
COFFR
10
407.0
20
2.2792
30
0.0
0
SEQEND
0
POLYLINE
5
 502
100
AcDbEntity
8
AXIS
66
 1
100
AcDb2dPolyline
70
 0
0
VERTEX
100
AcDbVertex
100
AcDb2dVertex
8
AXIS
10
84.000006
20
58.573546
30
0.0
0
VERTEX
100
AcDbVertex
100
AcDb2dVertex
8
AXIS
10
84.000006
20
0.018154
30
0.0
0
SEQEND
0
POLYLINE
5
 503
100
AcDbEntity
8
LONG
66
 1
100
AcDb2dPolyline
70
 1
0
VERTEX
100
AcDbVertex
100
AcDb2dVertex
8
LONG
10
80.000006
20
55.573546
30
0.0
0
VERTEX
100
AcDbVertex
100
AcDb2dVertex
8
LONG
10
87.999994
20
55.573546
30
0.0
0
VERTEX
100
AcDbVertex
100
AcDb2dVertex
8
LONG
10
87.999994
20
42.573546
30
0.0
0
VERTEX
100
AcDbVertex
100
AcDb2dVertex
8
LONG
10
79.999994
20
42.573546
30
0.0
0
SEQEND
0
POLYLINE
5
 503
100
AcDbEntity
8
LONG
66
 1
100
AcDb2dPolyline
70
 1
0
VERTEX
100
AcDbVertex
100
AcDb2dVertex
8
LONG
10
80.000006
20
3.018155
30
0.0
0
VERTEX
100
AcDbVertex
100
AcDb2dVertex
8
LONG
10
87.999994
20
3.018155
30
0.0
0
VERTEX
100
AcDbVertex
100
AcDb2dVertex
8
LONG
10
87.999994
20
16.018155
30
0.0
0
VERTEX
100
AcDbVertex
100
AcDb2dVertex
8
LONG
10
79.999994
20
16.018155
30
0.0
0
SEQEND
0
POLYLINE
5
 502
100
AcDbEntity
8
AXIS
66
 1
100
AcDb2dPolyline
70
 0
0
VERTEX
100
AcDbVertex
100
AcDb2dVertex
8
AXIS
10
250.000004
20
44.421948
30
0.0
0
VERTEX
100
AcDbVertex
100
AcDb2dVertex
8
AXIS
10
250.000004
20
1.5602
30
0.0
0
SEQEND
0
POLYLINE
5
 503
100
AcDbEntity
8
LONG
66
 1
100
AcDb2dPolyline
70
 1
0
VERTEX
100
AcDbVertex
100
AcDb2dVertex
8
LONG
10
247.000004
20
41.421948
30
0.0
0
VERTEX
100
AcDbVertex
100
AcDb2dVertex
8
LONG
10
253.000003
20
41.421948
30
0.0
0
VERTEX
100
AcDbVertex
100
AcDb2dVertex
8
LONG
10
253.000003
20
31.421948
30
0.0
0
VERTEX
100
AcDbVertex
100
AcDb2dVertex
8
LONG
10
247.000003
20
31.421948
30
0.0
0
SEQEND
0
POLYLINE
5
 503
100
AcDbEntity
8
LONG
66
 1
100
AcDb2dPolyline
70
 1
0
VERTEX
100
AcDbVertex
100
AcDb2dVertex
8
LONG
10
247.000004
20
4.5602
30
0.0
0
VERTEX
100
AcDbVertex
100
AcDb2dVertex
8
LONG
10
253.000003
20
4.5602
30
0.0
0
VERTEX
100
AcDbVertex
100
AcDb2dVertex
8
LONG
10
253.000003
20
14.5602
30
0.0
0
VERTEX
100
AcDbVertex
100
AcDb2dVertex
8
LONG
10
247.000003
20
14.5602
30
0.0
0
SEQEND
0
POLYLINE
5
 502
100
AcDbEntity
8
AXIS
66
 1
100
AcDb2dPolyline
70
 0
0
VERTEX
100
AcDbVertex
100
AcDb2dVertex
8
AXIS
10
110.000015
20
59.759242
30
0.0
0
VERTEX
100
AcDbVertex
100
AcDb2dVertex
8
AXIS
10
110.000015
20
0.236996
30
0.0
0
SEQEND
0
POLYLINE
5
 502
100
AcDbEntity
8
AXIS
66
 1
100
AcDb2dPolyline
70
 0
0
VERTEX
100
AcDbVertex
100
AcDb2dVertex
8
AXIS
10
93.500015
20
27.759242
30
0.0
0
VERTEX
100
AcDbVertex
100
AcDb2dVertex
8
AXIS
10
126.499986
20
27.759242
30
0.0
0
SEQEND
0
CIRCLE
5
 504
100
AcDbEntity
8
LONG
100
AcDbCircle
39
 0
10
110.000015
20
27.759242
30
0.0
40
16.5
0
CIRCLE
5
 504
100
AcDbEntity
8
TROU
100
AcDbCircle
39
 0
10
50.000005
20
26.245078
30
0.0
40
12.5
0
POLYLINE
5
 502
100
AcDbEntity
8
AXIS
66
 1
100
AcDb2dPolyline
70
 0
0
VERTEX
100
AcDbVertex
100
AcDb2dVertex
8
AXIS
10
37.500005
20
26.245078
30
0.0
0
VERTEX
100
AcDbVertex
100
AcDb2dVertex
8
AXIS
10
62.499987
20
26.245078
30
0.0
0
SEQEND
0
POLYLINE
5
 502
100
AcDbEntity
8
AXIS
66
 1
100
AcDb2dPolyline
70
 0
0
VERTEX
100
AcDbVertex
100
AcDb2dVertex
8
AXIS
10
50.000005
20
19.995078
30
0.0
0
VERTEX
100
AcDbVertex
100
AcDb2dVertex
8
AXIS
10
50.000005
20
32.495078
30
0.0
0
SEQEND
0
CIRCLE
5
 504
100
AcDbEntity
8
TROU
100
AcDbCircle
39
 0
10
159.999991
20
29.711168
30
0.0
40
15.0
0
POLYLINE
5
 502
100
AcDbEntity
8
AXIS
66
 1
100
AcDb2dPolyline
70
 0
0
VERTEX
100
AcDbVertex
100
AcDb2dVertex
8
AXIS
10
144.999991
20
29.711168
30
0.0
0
VERTEX
100
AcDbVertex
100
AcDb2dVertex
8
AXIS
10
175.000001
20
29.711168
30
0.0
0
SEQEND
0
POLYLINE
5
 502
100
AcDbEntity
8
AXIS
66
 1
100
AcDb2dPolyline
70
 0
0
VERTEX
100
AcDbVertex
100
AcDb2dVertex
8
AXIS
10
159.999991
20
22.211168
30
0.0
0
VERTEX
100
AcDbVertex
100
AcDb2dVertex
8
AXIS
10
159.999991
20
37.211168
30
0.0
0
SEQEND
0
CIRCLE
5
 504
100
AcDbEntity
8
TROU
100
AcDbCircle
39
 0
10
210.000001
20
26.728463
30
0.0
40
12.5
0
POLYLINE
5
 502
100
AcDbEntity
8
AXIS
66
 1
100
AcDb2dPolyline
70
 0
0
VERTEX
100
AcDbVertex
100
AcDb2dVertex
8
AXIS
10
197.500001
20
26.728463
30
0.0
0
VERTEX
100
AcDbVertex
100
AcDb2dVertex
8
AXIS
10
222.499999
20
26.728463
30
0.0
0
SEQEND
0
POLYLINE
5
 502
100
AcDbEntity
8
AXIS
66
 1
100
AcDb2dPolyline
70
 0
0
VERTEX
100
AcDbVertex
100
AcDb2dVertex
8
AXIS
10
210.000001
20
20.478463
30
0.0
0
VERTEX
100
AcDbVertex
100
AcDb2dVertex
8
AXIS
10
210.000001
20
32.978463
30
0.0
0
SEQEND
0
CIRCLE
5
 504
100
AcDbEntity
8
TROU
100
AcDbCircle
39
 0
10
269.999995
20
20.823386
30
0.0
40
7.0
0
POLYLINE
5
 502
100
AcDbEntity
8
AXIS
66
 1
100
AcDb2dPolyline
70
 0
0
VERTEX
100
AcDbVertex
100
AcDb2dVertex
8
AXIS
10
262.999995
20
20.823386
30
0.0
0
VERTEX
100
AcDbVertex
100
AcDb2dVertex
8
AXIS
10
276.999998
20
20.823386
30
0.0
0
SEQEND
0
POLYLINE
5
 502
100
AcDbEntity
8
AXIS
66
 1
100
AcDb2dPolyline
70
 0
0
VERTEX
100
AcDbVertex
100
AcDb2dVertex
8
AXIS
10
269.999995
20
17.323386
30
0.0
0
VERTEX
100
AcDbVertex
100
AcDb2dVertex
8
AXIS
10
269.999995
20
24.323386
30
0.0
0
SEQEND
0
ENDSEC
0
EOF
