0
SECTION
2
HEADER
9
$ACADVER
1
AC1004
9
$INSBASE
10
0.0
20
0.0
9
$EXTMIN
10
-10.0
20
-50.0
9
$EXTMAX
10
220.0
20
50.0
9
$LIMMIN
10
-9.184627
20
4.296983
9
$LIMMAX
10
44.815373
20
28.296983
9
$VIEWCTR
10
6.0
20
4.5
9
$VIEWSIZE
40
 9
9
$SNAPMODE
70
 1
9
$SNAPUNIT
10
0.0625
20
0.0625
9
$SNAPBASE
10
0.0
20
0.0
9
$SNAPANG
50
 0
9
$SNAPSTYLE
70
 0
9
$SNAPISOPAIR
70
 0
9
$GRIDMODE
70
 0
9
$GRIDUNIT
10
0.0625
20
0.0625
9
$ORTHOMODE
70
 0
9
$REGENMODE
70
 1
9
$FILLMODE
70
 1
9
$QTEXTMODE
70
 0
9
$DRAGMODE
70
 2
9
$LTSCALE
40
0.44
9
$OSMODE
70
 0
9
$ATTMODE
70
 1
9
$TEXTSIZE
40
0.2
9
$TRACEWID
40
0.05
9
$TEXTSTYLE
7
STANDARD
9
$CLAYER
8
LAYER01
9
$CELTYPE
6
CONTINUOUS
9
$CECOLOR
62
 7
9
$DIMSCALE
40
 1
9
$DIMASZ
40
0.18
9
$DIMEXO
40
0.0625
9
$DIMDLI
40
0.38
9
$DIMRND
40
 0
9
$DIMDLE
40
 0
9
$DIMEXE
40
0.18
9
$DIMTP
40
 0
9
$DIMTM
40
 0
9
$DIMTXT
40
0.18
9
$DIMCEN
40
0.09
9
$DIMTSZ
40
 0
9
$DIMTOL
70
 0
9
$DIMLIM
70
 0
9
$DIMTIH
70
 1
9
$DIMTOH
70
 1
9
$DIMSE1
70
 0
9
$DIMSE2
70
 0
9
$DIMTAD
70
 0
9
$DIMZIN
70
 0
9
$DIMBLK
1

9
$DIMASO
70
 1
9
$DIMSHO
70
 1
9
$DIMPOST
1

9
$DIMAPOST
1

9
$DIMALT
70
 0
9
$DIMALTD
70
 2
9
$DIMALTF
40
25.4
9
$DIMLFAC
40
 1
9
$LUNITS
70
 2
9
$LUPREC
70
 4
9
$AXISMODE
70
 0
9
$AXISUNIT
10
0.0
20
0.0
9
$SKETCHINC
40
0.1
9
$FILLETRAD
40
0.125
9
$AUNITS
70
 0
9
$AUPREC
70
 0
9
$MENU
1
acad
9
$ELEVATION
40
 0
9
$THICKNESS
40
 0
9
$VIEWDIR
10
0.0
20
0.0
30
1.0
9
$LIMCHECK
70
 0
9
$BLIPMODE
70
 1
9
$CHAMFERA
40
0.5
9
$CHAMFERB
40
0.5
9
$FASTZOOM
70
 1
9
$SKPOLY
70
 0
9
$TDCREATE
40
 0
9
$TDUPDATE
40
 0
9
$TDINDWG
40
 0
9
$TDUSRTIMER
40
 0
9
$USRTIMER
70
 1
9
$ANGBASE
50
 0
9
$ANGDIR
70
 0
9
$PDMODE
70
 0
9
$PDSIZE
40
 0
9
$PLINEWID
40
0.008
9
$COORDS
70
 2
9
$SPLFRAME
70
 0
9
$SPLINESEGS
70
 10
9
$ATTDIA
70
 0
9
$ATTREQ
70
 1
9
$USERI1
70
 0
9
$USERI2
70
 0
9
$USERI3
70
 0
9
$USERI4
70
 0
9
$USERI5
70
 0
9
$USERR1
40
 0
9
$USERR2
40
 0
9
$USERR3
40
 0
9
$USERR4
40
 0
9
$USERR5
40
 0
0
ENDSEC
0
SECTION
2
TABLES
0
TABLE
2
VPORT
5
 10
100
AcDbSymbolTable
70
 10
0
VPORT
5
 11
100
AcDbSymbolTableRecord
100
AcDbViewportTableRecord
2
*ACTIVE
70
 0
10
0.0
20
0.0
11
2.0
21
2.0
12
0.0
22
0.0
13
0.0
23
0.0
14
0.0
24
0.0
15
0.0
25
0.0
16
0.0
26
0.0
36
0.0
17
0.0
27
0.0
37
0.0
40
0.0
41
0.0
42
0.0
43
0.0
44
0.0
50
0.0
51
0.0
71
 0
72
 0
73
 0
74
 0
75
 0
76
 0
77
 0
78
 0
0
ENDTAB
0
TABLE
2
LTYPE
5
 50
100
AcDbSymbolTable
70
10
0
LTYPE
5
 100
100
AcDbSymbolTableRecord
100
AcDbLinetypeTableRecord
2
CONT
70
 0
3
Solid Line __________
72
 65
73
 0
40
0.0
0
LTYPE
5
 101
100
AcDbSymbolTableRecord
100
AcDbLinetypeTableRecord
2
HIDDEN
70
 0
3
Cache __ __ __ __ __ __ __
72
 65
73
 2
40
9.525
49
6.35
49
-3.175
0
LTYPE
5
 102
100
AcDbSymbolTableRecord
100
AcDbLinetypeTableRecord
2
AXIS
70
 0
3
Centre ____ _ ____ _ ____
72
 65
73
 4
40
50.8
49
31.75
49
-6.35
49
6.35
49
-6.35
0
ENDTAB
0
TABLE
2
LAYER
5
 25
100
AcDbSymbolTable
70
10
0
LAYER
5
 30
100
AcDbSymbolTableRecord
100
AcDbLayerTableRecord
2
Layer01
70
 0
62
 7
6
CONT
0
LAYER
5
 31
100
AcDbSymbolTableRecord
100
AcDbLayerTableRecord
2
TALON
70
 0
62
 10
6
CONT
0
LAYER
5
 32
100
AcDbSymbolTableRecord
100
AcDbLayerTableRecord
2
AXIS
70
 0
62
 10
6
AXIS
0
LAYER
5
 33
100
AcDbSymbolTableRecord
100
AcDbLayerTableRecord
2
COFFR
70
 0
62
 180
6
CONT
0
LAYER
5
 34
100
AcDbSymbolTableRecord
100
AcDbLayerTableRecord
2
LONG
70
 0
62
 210
6
CONT
0
LAYER
5
 35
100
AcDbSymbolTableRecord
100
AcDbLayerTableRecord
2
TROU
70
 0
62
 195
6
CONT
0
ENDTAB
0
ENDSEC
0
SECTION
2
ENTITIES
0
POLYLINE
5
 501
100
AcDbEntity
8
Layer01
66
 1
100
AcDb2dPolyline
70
 0
0
VERTEX
100
AcDbVertex
100
AcDb2dVertex
8
Layer01
10
533.0
20
0.0
30
0.0
0
VERTEX
100
AcDbVertex
100
AcDb2dVertex
8
Layer01
10
532.467007
20
1.35039
30
0.0
0
VERTEX
100
AcDbVertex
100
AcDb2dVertex
8
Layer01
10
531.934014
20
2.494979
30
0.0
0
VERTEX
100
AcDbVertex
100
AcDb2dVertex
8
Layer01
10
531.401021
20
3.457563
30
0.0
0
VERTEX
100
AcDbVertex
100
AcDb2dVertex
8
Layer01
10
530.868027
20
4.260186
30
0.0
0
VERTEX
100
AcDbVertex
100
AcDb2dVertex
8
Layer01
10
530.335034
20
4.923204
30
0.0
0
VERTEX
100
AcDbVertex
100
AcDb2dVertex
8
Layer01
10
529.802041
20
5.465348
30
0.0
0
VERTEX
100
AcDbVertex
100
AcDb2dVertex
8
Layer01
10
529.269048
20
5.903784
30
0.0
0
VERTEX
100
AcDbVertex
100
AcDb2dVertex
8
Layer01
10
528.736055
20
6.254177
30
0.0
0
VERTEX
100
AcDbVertex
100
AcDb2dVertex
8
Layer01
10
528.203062
20
6.530755
30
0.0
0
VERTEX
100
AcDbVertex
100
AcDb2dVertex
8
Layer01
10
527.670069
20
6.74637
30
0.0
0
VERTEX
100
AcDbVertex
100
AcDb2dVertex
8
Layer01
10
527.137012
20
6.912577
30
0.0
0
VERTEX
100
AcDbVertex
100
AcDb2dVertex
8
Layer01
10
526.604019
20
7.039625
30
0.0
0
VERTEX
100
AcDbVertex
100
AcDb2dVertex
8
Layer01
10
526.071026
20
7.136636
30
0.0
0
VERTEX
100
AcDbVertex
100
AcDb2dVertex
8
Layer01
10
525.538033
20
7.211584
30
0.0
0
VERTEX
100
AcDbVertex
100
AcDb2dVertex
8
Layer01
10
525.005039
20
7.27138
30
0.0
0
VERTEX
100
AcDbVertex
100
AcDb2dVertex
8
Layer01
10
524.472046
20
7.321935
30
0.0
0
VERTEX
100
AcDbVertex
100
AcDb2dVertex
8
Layer01
10
523.939053
20
7.36822
30
0.0
0
VERTEX
100
AcDbVertex
100
AcDb2dVertex
8
Layer01
10
523.40606
20
7.414335
30
0.0
0
VERTEX
100
AcDbVertex
100
AcDb2dVertex
8
Layer01
10
522.873067
20
7.463562
30
0.0
0
VERTEX
100
AcDbVertex
100
AcDb2dVertex
8
Layer01
10
522.340074
20
7.518437
30
0.0
0
VERTEX
100
AcDbVertex
100
AcDb2dVertex
8
Layer01
10
521.807017
20
7.580813
30
0.0
0
VERTEX
100
AcDbVertex
100
AcDb2dVertex
8
Layer01
10
521.274024
20
7.651899
30
0.0
0
VERTEX
100
AcDbVertex
100
AcDb2dVertex
8
Layer01
10
520.741031
20
7.732359
30
0.0
0
VERTEX
100
AcDbVertex
100
AcDb2dVertex
8
Layer01
10
520.208038
20
7.822352
30
0.0
0
VERTEX
100
AcDbVertex
100
AcDb2dVertex
8
Layer01
10
519.675044
20
7.921602
30
0.0
0
VERTEX
100
AcDbVertex
100
AcDb2dVertex
8
Layer01
10
519.142051
20
8.029453
30
0.0
0
VERTEX
100
AcDbVertex
100
AcDb2dVertex
8
Layer01
10
518.609058
20
8.144941
30
0.0
0
VERTEX
100
AcDbVertex
100
AcDb2dVertex
8
Layer01
10
518.076065
20
8.26685
30
0.0
0
VERTEX
100
AcDbVertex
100
AcDb2dVertex
8
Layer01
10
517.543072
20
8.393777
30
0.0
0
VERTEX
100
AcDbVertex
100
AcDb2dVertex
8
Layer01
10
517.010079
20
8.524196
30
0.0
0
VERTEX
100
AcDbVertex
100
AcDb2dVertex
8
Layer01
10
516.477022
20
8.63594
30
0.0
0
VERTEX
100
AcDbVertex
100
AcDb2dVertex
8
Layer01
10
515.944029
20
8.749529
30
0.0
0
VERTEX
100
AcDbVertex
100
AcDb2dVertex
8
Layer01
10
515.411036
20
8.864939
30
0.0
0
VERTEX
100
AcDbVertex
100
AcDb2dVertex
8
Layer01
10
514.878043
20
8.982132
30
0.0
0
VERTEX
100
AcDbVertex
100
AcDb2dVertex
8
Layer01
10
514.34505
20
9.101069
30
0.0
0
VERTEX
100
AcDbVertex
100
AcDb2dVertex
8
Layer01
10
513.812056
20
9.22171
30
0.0
0
VERTEX
100
AcDbVertex
100
AcDb2dVertex
8
Layer01
10
513.279063
20
9.344017
30
0.0
0
VERTEX
100
AcDbVertex
100
AcDb2dVertex
8
Layer01
10
512.74607
20
9.467954
30
0.0
0
VERTEX
100
AcDbVertex
100
AcDb2dVertex
8
Layer01
10
512.213077
20
9.593483
30
0.0
0
VERTEX
100
AcDbVertex
100
AcDb2dVertex
8
Layer01
10
511.680084
20
9.720567
30
0.0
0
VERTEX
100
AcDbVertex
100
AcDb2dVertex
8
Layer01
10
511.146995
20
9.849195
30
0.0
0
VERTEX
100
AcDbVertex
100
AcDb2dVertex
8
Layer01
10
510.614002
20
9.979283
30
0.0
0
VERTEX
100
AcDbVertex
100
AcDb2dVertex
8
Layer01
10
510.081009
20
10.110819
30
0.0
0
VERTEX
100
AcDbVertex
100
AcDb2dVertex
8
Layer01
10
509.548016
20
10.243768
30
0.0
0
VERTEX
100
AcDbVertex
100
AcDb2dVertex
8
Layer01
10
509.015023
20
10.378095
30
0.0
0
VERTEX
100
AcDbVertex
100
AcDb2dVertex
8
Layer01
10
508.48203
20
10.513766
30
0.0
0
VERTEX
100
AcDbVertex
100
AcDb2dVertex
8
Layer01
10
507.949037
20
10.650747
30
0.0
0
VERTEX
100
AcDbVertex
100
AcDb2dVertex
8
Layer01
10
507.416043
20
10.789005
30
0.0
0
VERTEX
100
AcDbVertex
100
AcDb2dVertex
8
Layer01
10
506.88305
20
10.928508
30
0.0
0
VERTEX
100
AcDbVertex
100
AcDb2dVertex
8
Layer01
10
506.350057
20
11.069222
30
0.0
0
VERTEX
100
AcDbVertex
100
AcDb2dVertex
8
Layer01
10
505.817001
20
11.211132
30
0.0
0
VERTEX
100
AcDbVertex
100
AcDb2dVertex
8
Layer01
10
505.284007
20
11.354174
30
0.0
0
VERTEX
100
AcDbVertex
100
AcDb2dVertex
8
Layer01
10
504.751014
20
11.498333
30
0.0
0
VERTEX
100
AcDbVertex
100
AcDb2dVertex
8
Layer01
10
504.218021
20
11.643581
30
0.0
0
VERTEX
100
AcDbVertex
100
AcDb2dVertex
8
Layer01
10
503.685028
20
11.789885
30
0.0
0
VERTEX
100
AcDbVertex
100
AcDb2dVertex
8
Layer01
10
503.152035
20
11.937217
30
0.0
0
VERTEX
100
AcDbVertex
100
AcDb2dVertex
8
Layer01
10
502.619042
20
12.085549
30
0.0
0
VERTEX
100
AcDbVertex
100
AcDb2dVertex
8
Layer01
10
502.086049
20
12.23485
30
0.0
0
VERTEX
100
AcDbVertex
100
AcDb2dVertex
8
Layer01
10
501.553055
20
12.385092
30
0.0
0
VERTEX
100
AcDbVertex
100
AcDb2dVertex
8
Layer01
10
501.020062
20
12.536249
30
0.0
0
VERTEX
100
AcDbVertex
100
AcDb2dVertex
8
Layer01
10
500.487006
20
12.688311
30
0.0
0
VERTEX
100
AcDbVertex
100
AcDb2dVertex
8
Layer01
10
499.954012
20
12.841214
30
0.0
0
VERTEX
100
AcDbVertex
100
AcDb2dVertex
8
Layer01
10
499.421019
20
12.994949
30
0.0
0
VERTEX
100
AcDbVertex
100
AcDb2dVertex
8
Layer01
10
498.888026
20
13.14949
30
0.0
0
VERTEX
100
AcDbVertex
100
AcDb2dVertex
8
Layer01
10
498.355033
20
13.304811
30
0.0
0
VERTEX
100
AcDbVertex
100
AcDb2dVertex
8
Layer01
10
497.82204
20
13.460886
30
0.0
0
VERTEX
100
AcDbVertex
100
AcDb2dVertex
8
Layer01
10
497.289047
20
13.617691
30
0.0
0
VERTEX
100
AcDbVertex
100
AcDb2dVertex
8
Layer01
10
496.756054
20
13.7752
30
0.0
0
VERTEX
100
AcDbVertex
100
AcDb2dVertex
8
Layer01
10
496.22306
20
13.933389
30
0.0
0
VERTEX
100
AcDbVertex
100
AcDb2dVertex
8
Layer01
10
495.690067
20
14.092233
30
0.0
0
VERTEX
100
AcDbVertex
100
AcDb2dVertex
8
Layer01
10
495.157011
20
14.251729
30
0.0
0
VERTEX
100
AcDbVertex
100
AcDb2dVertex
8
Layer01
10
494.624018
20
14.411815
30
0.0
0
VERTEX
100
AcDbVertex
100
AcDb2dVertex
8
Layer01
10
494.091024
20
14.572486
30
0.0
0
VERTEX
100
AcDbVertex
100
AcDb2dVertex
8
Layer01
10
493.558031
20
14.733721
30
0.0
0
VERTEX
100
AcDbVertex
100
AcDb2dVertex
8
Layer01
10
493.025038
20
14.895498
30
0.0
0
VERTEX
100
AcDbVertex
100
AcDb2dVertex
8
Layer01
10
492.492045
20
15.057794
30
0.0
0
VERTEX
100
AcDbVertex
100
AcDb2dVertex
8
Layer01
10
491.959052
20
15.220588
30
0.0
0
VERTEX
100
AcDbVertex
100
AcDb2dVertex
8
Layer01
10
491.426059
20
15.38386
30
0.0
0
VERTEX
100
AcDbVertex
100
AcDb2dVertex
8
Layer01
10
490.893066
20
15.547588
30
0.0
0
VERTEX
100
AcDbVertex
100
AcDb2dVertex
8
Layer01
10
490.360072
20
15.711752
30
0.0
0
VERTEX
100
AcDbVertex
100
AcDb2dVertex
8
Layer01
10
489.827016
20
15.876352
30
0.0
0
VERTEX
100
AcDbVertex
100
AcDb2dVertex
8
Layer01
10
489.294023
20
16.041329
30
0.0
0
VERTEX
100
AcDbVertex
100
AcDb2dVertex
8
Layer01
10
488.761029
20
16.206683
30
0.0
0
VERTEX
100
AcDbVertex
100
AcDb2dVertex
8
Layer01
10
488.228036
20
16.372395
30
0.0
0
VERTEX
100
AcDbVertex
100
AcDb2dVertex
8
Layer01
10
487.695043
20
16.538447
30
0.0
0
VERTEX
100
AcDbVertex
100
AcDb2dVertex
8
Layer01
10
487.16205
20
16.704819
30
0.0
0
VERTEX
100
AcDbVertex
100
AcDb2dVertex
8
Layer01
10
486.629057
20
16.871495
30
0.0
0
VERTEX
100
AcDbVertex
100
AcDb2dVertex
8
Layer01
10
486.096064
20
17.038455
30
0.0
0
VERTEX
100
AcDbVertex
100
AcDb2dVertex
8
Layer01
10
485.563071
20
17.205684
30
0.0
0
VERTEX
100
AcDbVertex
100
AcDb2dVertex
8
Layer01
10
485.030078
20
17.373164
30
0.0
0
VERTEX
100
AcDbVertex
100
AcDb2dVertex
8
Layer01
10
484.497021
20
17.540897
30
0.0
0
VERTEX
100
AcDbVertex
100
AcDb2dVertex
8
Layer01
10
483.964028
20
17.708828
30
0.0
0
VERTEX
100
AcDbVertex
100
AcDb2dVertex
8
Layer01
10
483.431035
20
17.876962
30
0.0
0
VERTEX
100
AcDbVertex
100
AcDb2dVertex
8
Layer01
10
482.898041
20
18.045283
30
0.0
0
VERTEX
100
AcDbVertex
100
AcDb2dVertex
8
Layer01
10
482.365048
20
18.213774
30
0.0
0
VERTEX
100
AcDbVertex
100
AcDb2dVertex
8
Layer01
10
481.832055
20
18.382423
30
0.0
0
VERTEX
100
AcDbVertex
100
AcDb2dVertex
8
Layer01
10
481.299062
20
18.551213
30
0.0
0
VERTEX
100
AcDbVertex
100
AcDb2dVertex
8
Layer01
10
480.766069
20
18.720131
30
0.0
0
VERTEX
100
AcDbVertex
100
AcDb2dVertex
8
Layer01
10
480.233076
20
18.889163
30
0.0
0
VERTEX
100
AcDbVertex
100
AcDb2dVertex
8
Layer01
10
479.700083
20
19.058295
30
0.0
0
VERTEX
100
AcDbVertex
100
AcDb2dVertex
8
Layer01
10
479.166994
20
19.227545
30
0.0
0
VERTEX
100
AcDbVertex
100
AcDb2dVertex
8
Layer01
10
478.634001
20
19.396837
30
0.0
0
VERTEX
100
AcDbVertex
100
AcDb2dVertex
8
Layer01
10
478.101008
20
19.566191
30
0.0
0
VERTEX
100
AcDbVertex
100
AcDb2dVertex
8
Layer01
10
477.568015
20
19.735592
30
0.0
0
VERTEX
100
AcDbVertex
100
AcDb2dVertex
8
Layer01
10
477.035022
20
19.905029
30
0.0
0
VERTEX
100
AcDbVertex
100
AcDb2dVertex
8
Layer01
10
476.502028
20
20.074489
30
0.0
0
VERTEX
100
AcDbVertex
100
AcDb2dVertex
8
Layer01
10
475.969035
20
20.243962
30
0.0
0
VERTEX
100
AcDbVertex
100
AcDb2dVertex
8
Layer01
10
475.436042
20
20.413435
30
0.0
0
VERTEX
100
AcDbVertex
100
AcDb2dVertex
8
Layer01
10
474.903049
20
20.582897
30
0.0
0
VERTEX
100
AcDbVertex
100
AcDb2dVertex
8
Layer01
10
474.370056
20
20.752337
30
0.0
0
VERTEX
100
AcDbVertex
100
AcDb2dVertex
8
Layer01
10
473.836999
20
20.921765
30
0.0
0
VERTEX
100
AcDbVertex
100
AcDb2dVertex
8
Layer01
10
473.304006
20
21.09113
30
0.0
0
VERTEX
100
AcDbVertex
100
AcDb2dVertex
8
Layer01
10
472.771013
20
21.260442
30
0.0
0
VERTEX
100
AcDbVertex
100
AcDb2dVertex
8
Layer01
10
472.23802
20
21.429693
30
0.0
0
VERTEX
100
AcDbVertex
100
AcDb2dVertex
8
Layer01
10
471.705027
20
21.598872
30
0.0
0
VERTEX
100
AcDbVertex
100
AcDb2dVertex
8
Layer01
10
471.172034
20
21.76797
30
0.0
0
VERTEX
100
AcDbVertex
100
AcDb2dVertex
8
Layer01
10
470.63904
20
21.936979
30
0.0
0
VERTEX
100
AcDbVertex
100
AcDb2dVertex
8
Layer01
10
470.106047
20
22.10589
30
0.0
0
VERTEX
100
AcDbVertex
100
AcDb2dVertex
8
Layer01
10
469.573054
20
22.274695
30
0.0
0
VERTEX
100
AcDbVertex
100
AcDb2dVertex
8
Layer01
10
469.040061
20
22.443385
30
0.0
0
VERTEX
100
AcDbVertex
100
AcDb2dVertex
8
Layer01
10
468.507004
20
22.611974
30
0.0
0
VERTEX
100
AcDbVertex
100
AcDb2dVertex
8
Layer01
10
467.974011
20
22.780412
30
0.0
0
VERTEX
100
AcDbVertex
100
AcDb2dVertex
8
Layer01
10
467.441018
20
22.948713
30
0.0
0
VERTEX
100
AcDbVertex
100
AcDb2dVertex
8
Layer01
10
466.908025
20
23.116869
30
0.0
0
VERTEX
100
AcDbVertex
100
AcDb2dVertex
8
Layer01
10
466.375032
20
23.284873
30
0.0
0
VERTEX
100
AcDbVertex
100
AcDb2dVertex
8
Layer01
10
465.842039
20
23.452718
30
0.0
0
VERTEX
100
AcDbVertex
100
AcDb2dVertex
8
Layer01
10
465.309045
20
23.620399
30
0.0
0
VERTEX
100
AcDbVertex
100
AcDb2dVertex
8
Layer01
10
464.776052
20
23.787907
30
0.0
0
VERTEX
100
AcDbVertex
100
AcDb2dVertex
8
Layer01
10
464.243059
20
23.955239
30
0.0
0
VERTEX
100
AcDbVertex
100
AcDb2dVertex
8
Layer01
10
463.710066
20
24.122387
30
0.0
0
VERTEX
100
AcDbVertex
100
AcDb2dVertex
8
Layer01
10
463.177009
20
24.289365
30
0.0
0
VERTEX
100
AcDbVertex
100
AcDb2dVertex
8
Layer01
10
462.644016
20
24.456129
30
0.0
0
VERTEX
100
AcDbVertex
100
AcDb2dVertex
8
Layer01
10
462.111023
20
24.622693
30
0.0
0
VERTEX
100
AcDbVertex
100
AcDb2dVertex
8
Layer01
10
461.57803
20
24.789054
30
0.0
0
VERTEX
100
AcDbVertex
100
AcDb2dVertex
8
Layer01
10
461.045037
20
24.955205
30
0.0
0
VERTEX
100
AcDbVertex
100
AcDb2dVertex
8
Layer01
10
460.512044
20
25.121143
30
0.0
0
VERTEX
100
AcDbVertex
100
AcDb2dVertex
8
Layer01
10
459.979051
20
25.286864
30
0.0
0
VERTEX
100
AcDbVertex
100
AcDb2dVertex
8
Layer01
10
459.446057
20
25.452362
30
0.0
0
VERTEX
100
AcDbVertex
100
AcDb2dVertex
8
Layer01
10
458.913064
20
25.617636
30
0.0
0
VERTEX
100
AcDbVertex
100
AcDb2dVertex
8
Layer01
10
458.380071
20
25.78268
30
0.0
0
VERTEX
100
AcDbVertex
100
AcDb2dVertex
8
Layer01
10
457.847014
20
25.947512
30
0.0
0
VERTEX
100
AcDbVertex
100
AcDb2dVertex
8
Layer01
10
457.314021
20
26.112088
30
0.0
0
VERTEX
100
AcDbVertex
100
AcDb2dVertex
8
Layer01
10
456.781028
20
26.276426
30
0.0
0
VERTEX
100
AcDbVertex
100
AcDb2dVertex
8
Layer01
10
456.248035
20
26.440522
30
0.0
0
VERTEX
100
AcDbVertex
100
AcDb2dVertex
8
Layer01
10
455.715042
20
26.604374
30
0.0
0
VERTEX
100
AcDbVertex
100
AcDb2dVertex
8
Layer01
10
455.182049
20
26.76798
30
0.0
0
VERTEX
100
AcDbVertex
100
AcDb2dVertex
8
Layer01
10
454.649056
20
26.931337
30
0.0
0
VERTEX
100
AcDbVertex
100
AcDb2dVertex
8
Layer01
10
454.116063
20
27.094443
30
0.0
0
VERTEX
100
AcDbVertex
100
AcDb2dVertex
8
Layer01
10
453.583069
20
27.257296
30
0.0
0
VERTEX
100
AcDbVertex
100
AcDb2dVertex
8
Layer01
10
453.050076
20
27.419895
30
0.0
0
VERTEX
100
AcDbVertex
100
AcDb2dVertex
8
Layer01
10
452.51702
20
27.582258
30
0.0
0
VERTEX
100
AcDbVertex
100
AcDb2dVertex
8
Layer01
10
451.984026
20
27.744345
30
0.0
0
VERTEX
100
AcDbVertex
100
AcDb2dVertex
8
Layer01
10
451.451033
20
27.906172
30
0.0
0
VERTEX
100
AcDbVertex
100
AcDb2dVertex
8
Layer01
10
450.91804
20
28.067739
30
0.0
0
VERTEX
100
AcDbVertex
100
AcDb2dVertex
8
Layer01
10
450.385047
20
28.229045
30
0.0
0
VERTEX
100
AcDbVertex
100
AcDb2dVertex
8
Layer01
10
449.852054
20
28.390089
30
0.0
0
VERTEX
100
AcDbVertex
100
AcDb2dVertex
8
Layer01
10
449.319061
20
28.55087
30
0.0
0
VERTEX
100
AcDbVertex
100
AcDb2dVertex
8
Layer01
10
448.786068
20
28.711388
30
0.0
0
VERTEX
100
AcDbVertex
100
AcDb2dVertex
8
Layer01
10
448.253074
20
28.871643
30
0.0
0
VERTEX
100
AcDbVertex
100
AcDb2dVertex
8
Layer01
10
447.720081
20
29.031633
30
0.0
0
VERTEX
100
AcDbVertex
100
AcDb2dVertex
8
Layer01
10
447.186993
20
29.191387
30
0.0
0
VERTEX
100
AcDbVertex
100
AcDb2dVertex
8
Layer01
10
446.654
20
29.350848
30
0.0
0
VERTEX
100
AcDbVertex
100
AcDb2dVertex
8
Layer01
10
446.121007
20
29.510046
30
0.0
0
VERTEX
100
AcDbVertex
100
AcDb2dVertex
8
Layer01
10
445.588013
20
29.668981
30
0.0
0
VERTEX
100
AcDbVertex
100
AcDb2dVertex
8
Layer01
10
445.05502
20
29.827653
30
0.0
0
VERTEX
100
AcDbVertex
100
AcDb2dVertex
8
Layer01
10
444.522027
20
29.986063
30
0.0
0
VERTEX
100
AcDbVertex
100
AcDb2dVertex
8
Layer01
10
443.989034
20
30.144212
30
0.0
0
VERTEX
100
AcDbVertex
100
AcDb2dVertex
8
Layer01
10
443.456041
20
30.302101
30
0.0
0
VERTEX
100
AcDbVertex
100
AcDb2dVertex
8
Layer01
10
442.923048
20
30.459731
30
0.0
0
VERTEX
100
AcDbVertex
100
AcDb2dVertex
8
Layer01
10
442.390055
20
30.617103
30
0.0
0
VERTEX
100
AcDbVertex
100
AcDb2dVertex
8
Layer01
10
441.856998
20
30.774237
30
0.0
0
VERTEX
100
AcDbVertex
100
AcDb2dVertex
8
Layer01
10
441.324005
20
30.931098
30
0.0
0
VERTEX
100
AcDbVertex
100
AcDb2dVertex
8
Layer01
10
440.791012
20
31.087705
30
0.0
0
VERTEX
100
AcDbVertex
100
AcDb2dVertex
8
Layer01
10
440.258019
20
31.244062
30
0.0
0
VERTEX
100
AcDbVertex
100
AcDb2dVertex
8
Layer01
10
439.725025
20
31.400168
30
0.0
0
VERTEX
100
AcDbVertex
100
AcDb2dVertex
8
Layer01
10
439.192032
20
31.556028
30
0.0
0
VERTEX
100
AcDbVertex
100
AcDb2dVertex
8
Layer01
10
438.659039
20
31.711641
30
0.0
0
VERTEX
100
AcDbVertex
100
AcDb2dVertex
8
Layer01
10
438.126046
20
31.867012
30
0.0
0
VERTEX
100
AcDbVertex
100
AcDb2dVertex
8
Layer01
10
437.593053
20
32.022142
30
0.0
0
VERTEX
100
AcDbVertex
100
AcDb2dVertex
8
Layer01
10
437.06006
20
32.177033
30
0.0
0
VERTEX
100
AcDbVertex
100
AcDb2dVertex
8
Layer01
10
436.527003
20
32.331912
30
0.0
0
VERTEX
100
AcDbVertex
100
AcDb2dVertex
8
Layer01
10
435.99401
20
32.486524
30
0.0
0
VERTEX
100
AcDbVertex
100
AcDb2dVertex
8
Layer01
10
435.461017
20
32.640874
30
0.0
0
VERTEX
100
AcDbVertex
100
AcDb2dVertex
8
Layer01
10
434.928024
20
32.794952
30
0.0
0
VERTEX
100
AcDbVertex
100
AcDb2dVertex
8
Layer01
10
434.39503
20
32.948748
30
0.0
0
VERTEX
100
AcDbVertex
100
AcDb2dVertex
8
Layer01
10
433.862037
20
33.102257
30
0.0
0
VERTEX
100
AcDbVertex
100
AcDb2dVertex
8
Layer01
10
433.329044
20
33.255473
30
0.0
0
VERTEX
100
AcDbVertex
100
AcDb2dVertex
8
Layer01
10
432.796051
20
33.4084
30
0.0
0
VERTEX
100
AcDbVertex
100
AcDb2dVertex
8
Layer01
10
432.263058
20
33.56104
30
0.0
0
VERTEX
100
AcDbVertex
100
AcDb2dVertex
8
Layer01
10
431.730065
20
33.713404
30
0.0
0
VERTEX
100
AcDbVertex
100
AcDb2dVertex
8
Layer01
10
431.197008
20
33.864697
30
0.0
0
VERTEX
100
AcDbVertex
100
AcDb2dVertex
8
Layer01
10
430.664015
20
34.015797
30
0.0
0
VERTEX
100
AcDbVertex
100
AcDb2dVertex
8
Layer01
10
430.131022
20
34.166808
30
0.0
0
VERTEX
100
AcDbVertex
100
AcDb2dVertex
8
Layer01
10
429.598029
20
34.317824
30
0.0
0
VERTEX
100
AcDbVertex
100
AcDb2dVertex
8
Layer01
10
429.065036
20
34.468935
30
0.0
0
VERTEX
100
AcDbVertex
100
AcDb2dVertex
8
Layer01
10
428.532042
20
34.620231
30
0.0
0
VERTEX
100
AcDbVertex
100
AcDb2dVertex
8
Layer01
10
427.999049
20
34.771801
30
0.0
0
VERTEX
100
AcDbVertex
100
AcDb2dVertex
8
Layer01
10
427.466056
20
34.923727
30
0.0
0
VERTEX
100
AcDbVertex
100
AcDb2dVertex
8
Layer01
10
426.933063
20
35.076082
30
0.0
0
VERTEX
100
AcDbVertex
100
AcDb2dVertex
8
Layer01
10
426.40007
20
35.228935
30
0.0
0
VERTEX
100
AcDbVertex
100
AcDb2dVertex
8
Layer01
10
425.867013
20
35.383597
30
0.0
0
VERTEX
100
AcDbVertex
100
AcDb2dVertex
8
Layer01
10
425.33402
20
35.538743
30
0.0
0
VERTEX
100
AcDbVertex
100
AcDb2dVertex
8
Layer01
10
424.801027
20
35.69433
30
0.0
0
VERTEX
100
AcDbVertex
100
AcDb2dVertex
8
Layer01
10
424.268034
20
35.850288
30
0.0
0
VERTEX
100
AcDbVertex
100
AcDb2dVertex
8
Layer01
10
423.735041
20
36.006539
30
0.0
0
VERTEX
100
AcDbVertex
100
AcDb2dVertex
8
Layer01
10
423.202048
20
36.163001
30
0.0
0
VERTEX
100
AcDbVertex
100
AcDb2dVertex
8
Layer01
10
422.669054
20
36.319589
30
0.0
0
VERTEX
100
AcDbVertex
100
AcDb2dVertex
8
Layer01
10
422.136061
20
36.476215
30
0.0
0
VERTEX
100
AcDbVertex
100
AcDb2dVertex
8
Layer01
10
421.603068
20
36.632792
30
0.0
0
VERTEX
100
AcDbVertex
100
AcDb2dVertex
8
Layer01
10
421.070075
20
36.789237
30
0.0
0
VERTEX
100
AcDbVertex
100
AcDb2dVertex
8
Layer01
10
420.537018
20
36.944675
30
0.0
0
VERTEX
100
AcDbVertex
100
AcDb2dVertex
8
Layer01
10
420.004025
20
37.099868
30
0.0
0
VERTEX
100
AcDbVertex
100
AcDb2dVertex
8
Layer01
10
419.471032
20
37.254826
30
0.0
0
VERTEX
100
AcDbVertex
100
AcDb2dVertex
8
Layer01
10
418.938039
20
37.409548
30
0.0
0
VERTEX
100
AcDbVertex
100
AcDb2dVertex
8
Layer01
10
418.405046
20
37.564033
30
0.0
0
VERTEX
100
AcDbVertex
100
AcDb2dVertex
8
Layer01
10
417.872053
20
37.718286
30
0.0
0
VERTEX
100
AcDbVertex
100
AcDb2dVertex
8
Layer01
10
417.339059
20
37.872317
30
0.0
0
VERTEX
100
AcDbVertex
100
AcDb2dVertex
8
Layer01
10
416.806066
20
38.026133
30
0.0
0
VERTEX
100
AcDbVertex
100
AcDb2dVertex
8
Layer01
10
416.273073
20
38.179749
30
0.0
0
VERTEX
100
AcDbVertex
100
AcDb2dVertex
8
Layer01
10
415.74008
20
38.333177
30
0.0
0
VERTEX
100
AcDbVertex
100
AcDb2dVertex
8
Layer01
10
415.206992
20
38.486654
30
0.0
0
VERTEX
100
AcDbVertex
100
AcDb2dVertex
8
Layer01
10
414.673998
20
38.63993
30
0.0
0
VERTEX
100
AcDbVertex
100
AcDb2dVertex
8
Layer01
10
414.141005
20
38.793029
30
0.0
0
VERTEX
100
AcDbVertex
100
AcDb2dVertex
8
Layer01
10
413.608012
20
38.945953
30
0.0
0
VERTEX
100
AcDbVertex
100
AcDb2dVertex
8
Layer01
10
413.075019
20
39.098699
30
0.0
0
VERTEX
100
AcDbVertex
100
AcDb2dVertex
8
Layer01
10
412.542026
20
39.251268
30
0.0
0
VERTEX
100
AcDbVertex
100
AcDb2dVertex
8
Layer01
10
412.009033
20
39.403658
30
0.0
0
VERTEX
100
AcDbVertex
100
AcDb2dVertex
8
Layer01
10
411.47604
20
39.555869
30
0.0
0
VERTEX
100
AcDbVertex
100
AcDb2dVertex
8
Layer01
10
410.943047
20
39.7079
30
0.0
0
VERTEX
100
AcDbVertex
100
AcDb2dVertex
8
Layer01
10
410.410053
20
39.85975
30
0.0
0
VERTEX
100
AcDbVertex
100
AcDb2dVertex
8
Layer01
10
409.876997
20
40.011439
30
0.0
0
VERTEX
100
AcDbVertex
100
AcDb2dVertex
8
Layer01
10
409.344004
20
40.162927
30
0.0
0
VERTEX
100
AcDbVertex
100
AcDb2dVertex
8
Layer01
10
408.81101
20
40.314233
30
0.0
0
VERTEX
100
AcDbVertex
100
AcDb2dVertex
8
Layer01
10
408.278017
20
40.465355
30
0.0
0
VERTEX
100
AcDbVertex
100
AcDb2dVertex
8
Layer01
10
407.745024
20
40.616293
30
0.0
0
VERTEX
100
AcDbVertex
100
AcDb2dVertex
8
Layer01
10
407.212031
20
40.767046
30
0.0
0
VERTEX
100
AcDbVertex
100
AcDb2dVertex
8
Layer01
10
406.679038
20
40.917613
30
0.0
0
VERTEX
100
AcDbVertex
100
AcDb2dVertex
8
Layer01
10
406.146045
20
41.067994
30
0.0
0
VERTEX
100
AcDbVertex
100
AcDb2dVertex
8
Layer01
10
405.613052
20
41.218187
30
0.0
0
VERTEX
100
AcDbVertex
100
AcDb2dVertex
8
Layer01
10
405.080058
20
41.368192
30
0.0
0
VERTEX
100
AcDbVertex
100
AcDb2dVertex
8
Layer01
10
404.547002
20
41.518026
30
0.0
0
VERTEX
100
AcDbVertex
100
AcDb2dVertex
8
Layer01
10
404.014009
20
41.667653
30
0.0
0
VERTEX
100
AcDbVertex
100
AcDb2dVertex
8
Layer01
10
403.481016
20
41.817089
30
0.0
0
VERTEX
100
AcDbVertex
100
AcDb2dVertex
8
Layer01
10
402.948022
20
41.966335
30
0.0
0
VERTEX
100
AcDbVertex
100
AcDb2dVertex
8
Layer01
10
402.415029
20
42.115389
30
0.0
0
VERTEX
100
AcDbVertex
100
AcDb2dVertex
8
Layer01
10
401.882036
20
42.264251
30
0.0
0
VERTEX
100
AcDbVertex
100
AcDb2dVertex
8
Layer01
10
401.349043
20
42.412921
30
0.0
0
VERTEX
100
AcDbVertex
100
AcDb2dVertex
8
Layer01
10
400.81605
20
42.561397
30
0.0
0
VERTEX
100
AcDbVertex
100
AcDb2dVertex
8
Layer01
10
400.283057
20
42.709679
30
0.0
0
VERTEX
100
AcDbVertex
100
AcDb2dVertex
8
Layer01
10
399.750064
20
42.857766
30
0.0
0
VERTEX
100
AcDbVertex
100
AcDb2dVertex
8
Layer01
10
399.217007
20
43.005676
30
0.0
0
VERTEX
100
AcDbVertex
100
AcDb2dVertex
8
Layer01
10
398.684014
20
43.153373
30
0.0
0
VERTEX
100
AcDbVertex
100
AcDb2dVertex
8
Layer01
10
398.151021
20
43.300873
30
0.0
0
VERTEX
100
AcDbVertex
100
AcDb2dVertex
8
Layer01
10
397.618027
20
43.448177
30
0.0
0
VERTEX
100
AcDbVertex
100
AcDb2dVertex
8
Layer01
10
397.085034
20
43.595283
30
0.0
0
VERTEX
100
AcDbVertex
100
AcDb2dVertex
8
Layer01
10
396.552041
20
43.742191
30
0.0
0
VERTEX
100
AcDbVertex
100
AcDb2dVertex
8
Layer01
10
396.019048
20
43.8889
30
0.0
0
VERTEX
100
AcDbVertex
100
AcDb2dVertex
8
Layer01
10
395.486055
20
44.035411
30
0.0
0
VERTEX
100
AcDbVertex
100
AcDb2dVertex
8
Layer01
10
394.953062
20
44.181722
30
0.0
0
VERTEX
100
AcDbVertex
100
AcDb2dVertex
8
Layer01
10
394.420069
20
44.327832
30
0.0
0
VERTEX
100
AcDbVertex
100
AcDb2dVertex
8
Layer01
10
393.887012
20
44.473759
30
0.0
0
VERTEX
100
AcDbVertex
100
AcDb2dVertex
8
Layer01
10
393.354019
20
44.619467
30
0.0
0
VERTEX
100
AcDbVertex
100
AcDb2dVertex
8
Layer01
10
392.821026
20
44.764975
30
0.0
0
VERTEX
100
AcDbVertex
100
AcDb2dVertex
8
Layer01
10
392.288033
20
44.91028
30
0.0
0
VERTEX
100
AcDbVertex
100
AcDb2dVertex
8
Layer01
10
391.755039
20
45.055383
30
0.0
0
VERTEX
100
AcDbVertex
100
AcDb2dVertex
8
Layer01
10
391.222046
20
45.200284
30
0.0
0
VERTEX
100
AcDbVertex
100
AcDb2dVertex
8
Layer01
10
390.689053
20
45.344983
30
0.0
0
VERTEX
100
AcDbVertex
100
AcDb2dVertex
8
Layer01
10
390.15606
20
45.489478
30
0.0
0
VERTEX
100
AcDbVertex
100
AcDb2dVertex
8
Layer01
10
389.623067
20
45.63377
30
0.0
0
VERTEX
100
AcDbVertex
100
AcDb2dVertex
8
Layer01
10
389.090074
20
45.777858
30
0.0
0
VERTEX
100
AcDbVertex
100
AcDb2dVertex
8
Layer01
10
388.557017
20
45.92176
30
0.0
0
VERTEX
100
AcDbVertex
100
AcDb2dVertex
8
Layer01
10
388.024024
20
46.065441
30
0.0
0
VERTEX
100
AcDbVertex
100
AcDb2dVertex
8
Layer01
10
387.491031
20
46.208917
30
0.0
0
VERTEX
100
AcDbVertex
100
AcDb2dVertex
8
Layer01
10
386.958038
20
46.352187
30
0.0
0
VERTEX
100
AcDbVertex
100
AcDb2dVertex
8
Layer01
10
386.425044
20
46.495252
30
0.0
0
VERTEX
100
AcDbVertex
100
AcDb2dVertex
8
Layer01
10
385.892051
20
46.63811
30
0.0
0
VERTEX
100
AcDbVertex
100
AcDb2dVertex
8
Layer01
10
385.359058
20
46.780761
30
0.0
0
VERTEX
100
AcDbVertex
100
AcDb2dVertex
8
Layer01
10
384.826065
20
46.923205
30
0.0
0
VERTEX
100
AcDbVertex
100
AcDb2dVertex
8
Layer01
10
384.293072
20
47.065441
30
0.0
0
VERTEX
100
AcDbVertex
100
AcDb2dVertex
8
Layer01
10
383.760079
20
47.207469
30
0.0
0
VERTEX
100
AcDbVertex
100
AcDb2dVertex
8
Layer01
10
383.227022
20
47.349315
30
0.0
0
VERTEX
100
AcDbVertex
100
AcDb2dVertex
8
Layer01
10
382.694029
20
47.490934
30
0.0
0
VERTEX
100
AcDbVertex
100
AcDb2dVertex
8
Layer01
10
382.161036
20
47.632343
30
0.0
0
VERTEX
100
AcDbVertex
100
AcDb2dVertex
8
Layer01
10
381.628043
20
47.77354
30
0.0
0
VERTEX
100
AcDbVertex
100
AcDb2dVertex
8
Layer01
10
381.09505
20
47.914524
30
0.0
0
VERTEX
100
AcDbVertex
100
AcDb2dVertex
8
Layer01
10
380.562056
20
48.055296
30
0.0
0
VERTEX
100
AcDbVertex
100
AcDb2dVertex
8
Layer01
10
380.029063
20
48.195853
30
0.0
0
VERTEX
100
AcDbVertex
100
AcDb2dVertex
8
Layer01
10
379.49607
20
48.336196
30
0.0
0
VERTEX
100
AcDbVertex
100
AcDb2dVertex
8
Layer01
10
378.963077
20
48.476326
30
0.0
0
VERTEX
100
AcDbVertex
100
AcDb2dVertex
8
Layer01
10
378.430084
20
48.616241
30
0.0
0
VERTEX
100
AcDbVertex
100
AcDb2dVertex
8
Layer01
10
377.896995
20
48.755924
30
0.0
0
VERTEX
100
AcDbVertex
100
AcDb2dVertex
8
Layer01
10
377.364002
20
48.895373
30
0.0
0
VERTEX
100
AcDbVertex
100
AcDb2dVertex
8
Layer01
10
376.831009
20
49.034617
30
0.0
0
VERTEX
100
AcDbVertex
100
AcDb2dVertex
8
Layer01
10
376.298016
20
49.173659
30
0.0
0
VERTEX
100
AcDbVertex
100
AcDb2dVertex
8
Layer01
10
375.765023
20
49.312504
30
0.0
0
VERTEX
100
AcDbVertex
100
AcDb2dVertex
8
Layer01
10
375.23203
20
49.451156
30
0.0
0
VERTEX
100
AcDbVertex
100
AcDb2dVertex
8
Layer01
10
374.699037
20
49.58962
30
0.0
0
VERTEX
100
AcDbVertex
100
AcDb2dVertex
8
Layer01
10
374.166043
20
49.727898
30
0.0
0
VERTEX
100
AcDbVertex
100
AcDb2dVertex
8
Layer01
10
373.63305
20
49.865995
30
0.0
0
VERTEX
100
AcDbVertex
100
AcDb2dVertex
8
Layer01
10
373.100057
20
50.003913
30
0.0
0
VERTEX
100
AcDbVertex
100
AcDb2dVertex
8
Layer01
10
372.567001
20
50.141737
30
0.0
0
VERTEX
100
AcDbVertex
100
AcDb2dVertex
8
Layer01
10
372.034007
20
50.279365
30
0.0
0
VERTEX
100
AcDbVertex
100
AcDb2dVertex
8
Layer01
10
371.501014
20
50.416809
30
0.0
0
VERTEX
100
AcDbVertex
100
AcDb2dVertex
8
Layer01
10
370.968021
20
50.554067
30
0.0
0
VERTEX
100
AcDbVertex
100
AcDb2dVertex
8
Layer01
10
370.435028
20
50.691132
30
0.0
0
VERTEX
100
AcDbVertex
100
AcDb2dVertex
8
Layer01
10
369.902035
20
50.828
30
0.0
0
VERTEX
100
AcDbVertex
100
AcDb2dVertex
8
Layer01
10
369.369042
20
50.964666
30
0.0
0
VERTEX
100
AcDbVertex
100
AcDb2dVertex
8
Layer01
10
368.836049
20
51.101125
30
0.0
0
VERTEX
100
AcDbVertex
100
AcDb2dVertex
8
Layer01
10
368.303055
20
51.237372
30
0.0
0
VERTEX
100
AcDbVertex
100
AcDb2dVertex
8
Layer01
10
367.770062
20
51.373402
30
0.0
0
VERTEX
100
AcDbVertex
100
AcDb2dVertex
8
Layer01
10
367.237006
20
51.509183
30
0.0
0
VERTEX
100
AcDbVertex
100
AcDb2dVertex
8
Layer01
10
366.704012
20
51.644724
30
0.0
0
VERTEX
100
AcDbVertex
100
AcDb2dVertex
8
Layer01
10
366.171019
20
51.780042
30
0.0
0
VERTEX
100
AcDbVertex
100
AcDb2dVertex
8
Layer01
10
365.638026
20
51.915135
30
0.0
0
VERTEX
100
AcDbVertex
100
AcDb2dVertex
8
Layer01
10
365.105033
20
52.050004
30
0.0
0
VERTEX
100
AcDbVertex
100
AcDb2dVertex
8
Layer01
10
364.57204
20
52.184649
30
0.0
0
VERTEX
100
AcDbVertex
100
AcDb2dVertex
8
Layer01
10
364.039047
20
52.319069
30
0.0
0
VERTEX
100
AcDbVertex
100
AcDb2dVertex
8
Layer01
10
363.506054
20
52.453265
30
0.0
0
VERTEX
100
AcDbVertex
100
AcDb2dVertex
8
Layer01
10
362.97306
20
52.587237
30
0.0
0
VERTEX
100
AcDbVertex
100
AcDb2dVertex
8
Layer01
10
362.440067
20
52.720985
30
0.0
0
VERTEX
100
AcDbVertex
100
AcDb2dVertex
8
Layer01
10
361.907011
20
52.854538
30
0.0
0
VERTEX
100
AcDbVertex
100
AcDb2dVertex
8
Layer01
10
361.374018
20
52.987852
30
0.0
0
VERTEX
100
AcDbVertex
100
AcDb2dVertex
8
Layer01
10
360.841024
20
53.120941
30
0.0
0
VERTEX
100
AcDbVertex
100
AcDb2dVertex
8
Layer01
10
360.308031
20
53.253805
30
0.0
0
VERTEX
100
AcDbVertex
100
AcDb2dVertex
8
Layer01
10
359.775038
20
53.386444
30
0.0
0
VERTEX
100
AcDbVertex
100
AcDb2dVertex
8
Layer01
10
359.242045
20
53.518856
30
0.0
0
VERTEX
100
AcDbVertex
100
AcDb2dVertex
8
Layer01
10
358.709052
20
53.651042
30
0.0
0
VERTEX
100
AcDbVertex
100
AcDb2dVertex
8
Layer01
10
358.176059
20
53.783001
30
0.0
0
VERTEX
100
AcDbVertex
100
AcDb2dVertex
8
Layer01
10
357.643066
20
53.914733
30
0.0
0
VERTEX
100
AcDbVertex
100
AcDb2dVertex
8
Layer01
10
357.110072
20
54.046235
30
0.0
0
VERTEX
100
AcDbVertex
100
AcDb2dVertex
8
Layer01
10
356.577016
20
54.177524
30
0.0
0
VERTEX
100
AcDbVertex
100
AcDb2dVertex
8
Layer01
10
356.044023
20
54.308567
30
0.0
0
VERTEX
100
AcDbVertex
100
AcDb2dVertex
8
Layer01
10
355.511029
20
54.439381
30
0.0
0
VERTEX
100
AcDbVertex
100
AcDb2dVertex
8
Layer01
10
354.978036
20
54.569965
30
0.0
0
VERTEX
100
AcDbVertex
100
AcDb2dVertex
8
Layer01
10
354.445043
20
54.700319
30
0.0
0
VERTEX
100
AcDbVertex
100
AcDb2dVertex
8
Layer01
10
353.91205
20
54.830442
30
0.0
0
VERTEX
100
AcDbVertex
100
AcDb2dVertex
8
Layer01
10
353.379057
20
54.960334
30
0.0
0
VERTEX
100
AcDbVertex
100
AcDb2dVertex
8
Layer01
10
352.846064
20
55.089994
30
0.0
0
VERTEX
100
AcDbVertex
100
AcDb2dVertex
8
Layer01
10
352.313071
20
55.219423
30
0.0
0
VERTEX
100
AcDbVertex
100
AcDb2dVertex
8
Layer01
10
351.780078
20
55.34862
30
0.0
0
VERTEX
100
AcDbVertex
100
AcDb2dVertex
8
Layer01
10
351.247021
20
55.4776
30
0.0
0
VERTEX
100
AcDbVertex
100
AcDb2dVertex
8
Layer01
10
350.714028
20
55.606332
30
0.0
0
VERTEX
100
AcDbVertex
100
AcDb2dVertex
8
Layer01
10
350.181035
20
55.734831
30
0.0
0
VERTEX
100
AcDbVertex
100
AcDb2dVertex
8
Layer01
10
349.648041
20
55.863096
30
0.0
0
VERTEX
100
AcDbVertex
100
AcDb2dVertex
8
Layer01
10
349.115048
20
55.991128
30
0.0
0
VERTEX
100
AcDbVertex
100
AcDb2dVertex
8
Layer01
10
348.582055
20
56.118926
30
0.0
0
VERTEX
100
AcDbVertex
100
AcDb2dVertex
8
Layer01
10
348.049062
20
56.246488
30
0.0
0
VERTEX
100
AcDbVertex
100
AcDb2dVertex
8
Layer01
10
347.516069
20
56.373816
30
0.0
0
VERTEX
100
AcDbVertex
100
AcDb2dVertex
8
Layer01
10
346.983076
20
56.500909
30
0.0
0
VERTEX
100
AcDbVertex
100
AcDb2dVertex
8
Layer01
10
346.450083
20
56.627766
30
0.0
0
VERTEX
100
AcDbVertex
100
AcDb2dVertex
8
Layer01
10
345.916994
20
56.75441
30
0.0
0
VERTEX
100
AcDbVertex
100
AcDb2dVertex
8
Layer01
10
345.384001
20
56.880795
30
0.0
0
VERTEX
100
AcDbVertex
100
AcDb2dVertex
8
Layer01
10
344.851008
20
57.006943
30
0.0
0
VERTEX
100
AcDbVertex
100
AcDb2dVertex
8
Layer01
10
344.318015
20
57.132853
30
0.0
0
VERTEX
100
AcDbVertex
100
AcDb2dVertex
8
Layer01
10
343.785022
20
57.258526
30
0.0
0
VERTEX
100
AcDbVertex
100
AcDb2dVertex
8
Layer01
10
343.252028
20
57.38396
30
0.0
0
VERTEX
100
AcDbVertex
100
AcDb2dVertex
8
Layer01
10
342.719035
20
57.509156
30
0.0
0
VERTEX
100
AcDbVertex
100
AcDb2dVertex
8
Layer01
10
342.186042
20
57.634113
30
0.0
0
VERTEX
100
AcDbVertex
100
AcDb2dVertex
8
Layer01
10
341.653049
20
57.75883
30
0.0
0
VERTEX
100
AcDbVertex
100
AcDb2dVertex
8
Layer01
10
341.120056
20
57.883307
30
0.0
0
VERTEX
100
AcDbVertex
100
AcDb2dVertex
8
Layer01
10
340.586999
20
58.007558
30
0.0
0
VERTEX
100
AcDbVertex
100
AcDb2dVertex
8
Layer01
10
340.054006
20
58.131554
30
0.0
0
VERTEX
100
AcDbVertex
100
AcDb2dVertex
8
Layer01
10
339.521013
20
58.255308
30
0.0
0
VERTEX
100
AcDbVertex
100
AcDb2dVertex
8
Layer01
10
338.98802
20
58.37882
30
0.0
0
VERTEX
100
AcDbVertex
100
AcDb2dVertex
8
Layer01
10
338.455027
20
58.502091
30
0.0
0
VERTEX
100
AcDbVertex
100
AcDb2dVertex
8
Layer01
10
337.922034
20
58.62512
30
0.0
0
VERTEX
100
AcDbVertex
100
AcDb2dVertex
8
Layer01
10
337.38904
20
58.747905
30
0.0
0
VERTEX
100
AcDbVertex
100
AcDb2dVertex
8
Layer01
10
336.856047
20
58.870448
30
0.0
0
VERTEX
100
AcDbVertex
100
AcDb2dVertex
8
Layer01
10
336.323054
20
58.992747
30
0.0
0
VERTEX
100
AcDbVertex
100
AcDb2dVertex
8
Layer01
10
335.790061
20
59.114803
30
0.0
0
VERTEX
100
AcDbVertex
100
AcDb2dVertex
8
Layer01
10
335.257004
20
59.236629
30
0.0
0
VERTEX
100
AcDbVertex
100
AcDb2dVertex
8
Layer01
10
334.724011
20
59.358196
30
0.0
0
VERTEX
100
AcDbVertex
100
AcDb2dVertex
8
Layer01
10
334.191018
20
59.479518
30
0.0
0
VERTEX
100
AcDbVertex
100
AcDb2dVertex
8
Layer01
10
333.658025
20
59.600595
30
0.0
0
VERTEX
100
AcDbVertex
100
AcDb2dVertex
8
Layer01
10
333.125032
20
59.721427
30
0.0
0
VERTEX
100
AcDbVertex
100
AcDb2dVertex
8
Layer01
10
332.592039
20
59.842012
30
0.0
0
VERTEX
100
AcDbVertex
100
AcDb2dVertex
8
Layer01
10
332.059045
20
59.962352
30
0.0
0
VERTEX
100
AcDbVertex
100
AcDb2dVertex
8
Layer01
10
331.526052
20
60.082444
30
0.0
0
VERTEX
100
AcDbVertex
100
AcDb2dVertex
8
Layer01
10
330.993059
20
60.202289
30
0.0
0
VERTEX
100
AcDbVertex
100
AcDb2dVertex
8
Layer01
10
330.460066
20
60.321887
30
0.0
0
VERTEX
100
AcDbVertex
100
AcDb2dVertex
8
Layer01
10
329.927009
20
60.441242
30
0.0
0
VERTEX
100
AcDbVertex
100
AcDb2dVertex
8
Layer01
10
329.394016
20
60.560335
30
0.0
0
VERTEX
100
AcDbVertex
100
AcDb2dVertex
8
Layer01
10
328.861023
20
60.67918
30
0.0
0
VERTEX
100
AcDbVertex
100
AcDb2dVertex
8
Layer01
10
328.32803
20
60.797779
30
0.0
0
VERTEX
100
AcDbVertex
100
AcDb2dVertex
8
Layer01
10
327.795037
20
60.916131
30
0.0
0
VERTEX
100
AcDbVertex
100
AcDb2dVertex
8
Layer01
10
327.262044
20
61.034236
30
0.0
0
VERTEX
100
AcDbVertex
100
AcDb2dVertex
8
Layer01
10
326.729051
20
61.152095
30
0.0
0
VERTEX
100
AcDbVertex
100
AcDb2dVertex
8
Layer01
10
326.196057
20
61.269707
30
0.0
0
VERTEX
100
AcDbVertex
100
AcDb2dVertex
8
Layer01
10
325.663064
20
61.387071
30
0.0
0
VERTEX
100
AcDbVertex
100
AcDb2dVertex
8
Layer01
10
325.130071
20
61.504187
30
0.0
0
VERTEX
100
AcDbVertex
100
AcDb2dVertex
8
Layer01
10
324.597014
20
61.621107
30
0.0
0
VERTEX
100
AcDbVertex
100
AcDb2dVertex
8
Layer01
10
324.064021
20
61.73776
30
0.0
0
VERTEX
100
AcDbVertex
100
AcDb2dVertex
8
Layer01
10
323.531028
20
61.854155
30
0.0
0
VERTEX
100
AcDbVertex
100
AcDb2dVertex
8
Layer01
10
322.998035
20
61.970287
30
0.0
0
VERTEX
100
AcDbVertex
100
AcDb2dVertex
8
Layer01
10
322.465042
20
62.086153
30
0.0
0
VERTEX
100
AcDbVertex
100
AcDb2dVertex
8
Layer01
10
321.932049
20
62.201747
30
0.0
0
VERTEX
100
AcDbVertex
100
AcDb2dVertex
8
Layer01
10
321.399056
20
62.317066
30
0.0
0
VERTEX
100
AcDbVertex
100
AcDb2dVertex
8
Layer01
10
320.866063
20
62.432105
30
0.0
0
VERTEX
100
AcDbVertex
100
AcDb2dVertex
8
Layer01
10
320.333069
20
62.546861
30
0.0
0
VERTEX
100
AcDbVertex
100
AcDb2dVertex
8
Layer01
10
319.800076
20
62.661329
30
0.0
0
VERTEX
100
AcDbVertex
100
AcDb2dVertex
8
Layer01
10
319.26702
20
62.775463
30
0.0
0
VERTEX
100
AcDbVertex
100
AcDb2dVertex
8
Layer01
10
318.734026
20
62.889295
30
0.0
0
VERTEX
100
AcDbVertex
100
AcDb2dVertex
8
Layer01
10
318.201033
20
63.002843
30
0.0
0
VERTEX
100
AcDbVertex
100
AcDb2dVertex
8
Layer01
10
317.66804
20
63.116109
30
0.0
0
VERTEX
100
AcDbVertex
100
AcDb2dVertex
8
Layer01
10
317.135047
20
63.229098
30
0.0
0
VERTEX
100
AcDbVertex
100
AcDb2dVertex
8
Layer01
10
316.602054
20
63.341812
30
0.0
0
VERTEX
100
AcDbVertex
100
AcDb2dVertex
8
Layer01
10
316.069061
20
63.454257
30
0.0
0
VERTEX
100
AcDbVertex
100
AcDb2dVertex
8
Layer01
10
315.536068
20
63.566435
30
0.0
0
VERTEX
100
AcDbVertex
100
AcDb2dVertex
8
Layer01
10
315.003074
20
63.678351
30
0.0
0
VERTEX
100
AcDbVertex
100
AcDb2dVertex
8
Layer01
10
314.470081
20
63.790009
30
0.0
0
VERTEX
100
AcDbVertex
100
AcDb2dVertex
8
Layer01
10
313.936993
20
63.901471
30
0.0
0
VERTEX
100
AcDbVertex
100
AcDb2dVertex
8
Layer01
10
313.404
20
64.01266
30
0.0
0
VERTEX
100
AcDbVertex
100
AcDb2dVertex
8
Layer01
10
312.871007
20
64.123594
30
0.0
0
VERTEX
100
AcDbVertex
100
AcDb2dVertex
8
Layer01
10
312.338013
20
64.234274
30
0.0
0
VERTEX
100
AcDbVertex
100
AcDb2dVertex
8
Layer01
10
311.80502
20
64.344701
30
0.0
0
VERTEX
100
AcDbVertex
100
AcDb2dVertex
8
Layer01
10
311.272027
20
64.454873
30
0.0
0
VERTEX
100
AcDbVertex
100
AcDb2dVertex
8
Layer01
10
310.739034
20
64.56479
30
0.0
0
VERTEX
100
AcDbVertex
100
AcDb2dVertex
8
Layer01
10
310.206041
20
64.674452
30
0.0
0
VERTEX
100
AcDbVertex
100
AcDb2dVertex
8
Layer01
10
309.673048
20
64.783857
30
0.0
0
VERTEX
100
AcDbVertex
100
AcDb2dVertex
8
Layer01
10
309.140055
20
64.893005
30
0.0
0
VERTEX
100
AcDbVertex
100
AcDb2dVertex
8
Layer01
10
308.606998
20
65.001899
30
0.0
0
VERTEX
100
AcDbVertex
100
AcDb2dVertex
8
Layer01
10
308.074005
20
65.110523
30
0.0
0
VERTEX
100
AcDbVertex
100
AcDb2dVertex
8
Layer01
10
307.541012
20
65.218887
30
0.0
0
VERTEX
100
AcDbVertex
100
AcDb2dVertex
8
Layer01
10
307.008019
20
65.326994
30
0.0
0
VERTEX
100
AcDbVertex
100
AcDb2dVertex
8
Layer01
10
306.475025
20
65.434842
30
0.0
0
VERTEX
100
AcDbVertex
100
AcDb2dVertex
8
Layer01
10
305.942032
20
65.542431
30
0.0
0
VERTEX
100
AcDbVertex
100
AcDb2dVertex
8
Layer01
10
305.409039
20
65.649761
30
0.0
0
VERTEX
100
AcDbVertex
100
AcDb2dVertex
8
Layer01
10
304.876046
20
65.756833
30
0.0
0
VERTEX
100
AcDbVertex
100
AcDb2dVertex
8
Layer01
10
304.343053
20
65.863645
30
0.0
0
VERTEX
100
AcDbVertex
100
AcDb2dVertex
8
Layer01
10
303.81006
20
65.970198
30
0.0
0
VERTEX
100
AcDbVertex
100
AcDb2dVertex
8
Layer01
10
303.277003
20
66.076502
30
0.0
0
VERTEX
100
AcDbVertex
100
AcDb2dVertex
8
Layer01
10
302.74401
20
66.182535
30
0.0
0
VERTEX
100
AcDbVertex
100
AcDb2dVertex
8
Layer01
10
302.211017
20
66.288308
30
0.0
0
VERTEX
100
AcDbVertex
100
AcDb2dVertex
8
Layer01
10
301.678024
20
66.393821
30
0.0
0
VERTEX
100
AcDbVertex
100
AcDb2dVertex
8
Layer01
10
301.14503
20
66.499074
30
0.0
0
VERTEX
100
AcDbVertex
100
AcDb2dVertex
8
Layer01
10
300.612037
20
66.604066
30
0.0
0
VERTEX
100
AcDbVertex
100
AcDb2dVertex
8
Layer01
10
300.079044
20
66.708799
30
0.0
0
VERTEX
100
AcDbVertex
100
AcDb2dVertex
8
Layer01
10
299.546051
20
66.813271
30
0.0
0
VERTEX
100
AcDbVertex
100
AcDb2dVertex
8
Layer01
10
299.013058
20
66.917482
30
0.0
0
VERTEX
100
AcDbVertex
100
AcDb2dVertex
8
Layer01
10
298.480065
20
67.021433
30
0.0
0
VERTEX
100
AcDbVertex
100
AcDb2dVertex
8
Layer01
10
297.947008
20
67.125137
30
0.0
0
VERTEX
100
AcDbVertex
100
AcDb2dVertex
8
Layer01
10
297.414015
20
67.228567
30
0.0
0
VERTEX
100
AcDbVertex
100
AcDb2dVertex
8
Layer01
10
296.881022
20
67.331735
30
0.0
0
VERTEX
100
AcDbVertex
100
AcDb2dVertex
8
Layer01
10
296.348029
20
67.434642
30
0.0
0
VERTEX
100
AcDbVertex
100
AcDb2dVertex
8
Layer01
10
295.815036
20
67.537285
30
0.0
0
VERTEX
100
AcDbVertex
100
AcDb2dVertex
8
Layer01
10
295.282042
20
67.639666
30
0.0
0
VERTEX
100
AcDbVertex
100
AcDb2dVertex
8
Layer01
10
294.749049
20
67.741783
30
0.0
0
VERTEX
100
AcDbVertex
100
AcDb2dVertex
8
Layer01
10
294.216056
20
67.843637
30
0.0
0
VERTEX
100
AcDbVertex
100
AcDb2dVertex
8
Layer01
10
293.683063
20
67.945226
30
0.0
0
VERTEX
100
AcDbVertex
100
AcDb2dVertex
8
Layer01
10
293.15007
20
68.046551
30
0.0
0
VERTEX
100
AcDbVertex
100
AcDb2dVertex
8
Layer01
10
292.617013
20
68.14762
30
0.0
0
VERTEX
100
AcDbVertex
100
AcDb2dVertex
8
Layer01
10
292.08402
20
68.248412
30
0.0
0
VERTEX
100
AcDbVertex
100
AcDb2dVertex
8
Layer01
10
291.551027
20
68.348939
30
0.0
0
VERTEX
100
AcDbVertex
100
AcDb2dVertex
8
Layer01
10
291.018034
20
68.4492
30
0.0
0
VERTEX
100
AcDbVertex
100
AcDb2dVertex
8
Layer01
10
290.485041
20
68.549195
30
0.0
0
VERTEX
100
AcDbVertex
100
AcDb2dVertex
8
Layer01
10
289.952048
20
68.648924
30
0.0
0
VERTEX
100
AcDbVertex
100
AcDb2dVertex
8
Layer01
10
289.419054
20
68.748388
30
0.0
0
VERTEX
100
AcDbVertex
100
AcDb2dVertex
8
Layer01
10
288.886061
20
68.847585
30
0.0
0
VERTEX
100
AcDbVertex
100
AcDb2dVertex
8
Layer01
10
288.353068
20
68.946515
30
0.0
0
VERTEX
100
AcDbVertex
100
AcDb2dVertex
8
Layer01
10
287.820075
20
69.045179
30
0.0
0
VERTEX
100
AcDbVertex
100
AcDb2dVertex
8
Layer01
10
287.287018
20
69.14359
30
0.0
0
VERTEX
100
AcDbVertex
100
AcDb2dVertex
8
Layer01
10
286.754025
20
69.241721
30
0.0
0
VERTEX
100
AcDbVertex
100
AcDb2dVertex
8
Layer01
10
286.221032
20
69.339585
30
0.0
0
VERTEX
100
AcDbVertex
100
AcDb2dVertex
8
Layer01
10
285.688039
20
69.437181
30
0.0
0
VERTEX
100
AcDbVertex
100
AcDb2dVertex
8
Layer01
10
285.155046
20
69.534508
30
0.0
0
VERTEX
100
AcDbVertex
100
AcDb2dVertex
8
Layer01
10
284.622053
20
69.631567
30
0.0
0
VERTEX
100
AcDbVertex
100
AcDb2dVertex
8
Layer01
10
284.089059
20
69.728356
30
0.0
0
VERTEX
100
AcDbVertex
100
AcDb2dVertex
8
Layer01
10
283.556066
20
69.824876
30
0.0
0
VERTEX
100
AcDbVertex
100
AcDb2dVertex
8
Layer01
10
283.023073
20
69.921125
30
0.0
0
VERTEX
100
AcDbVertex
100
AcDb2dVertex
8
Layer01
10
282.49008
20
70.017104
30
0.0
0
VERTEX
100
AcDbVertex
100
AcDb2dVertex
8
Layer01
10
281.956992
20
70.112829
30
0.0
0
VERTEX
100
AcDbVertex
100
AcDb2dVertex
8
Layer01
10
281.423998
20
70.208265
30
0.0
0
VERTEX
100
AcDbVertex
100
AcDb2dVertex
8
Layer01
10
280.891005
20
70.303429
30
0.0
0
VERTEX
100
AcDbVertex
100
AcDb2dVertex
8
Layer01
10
280.358012
20
70.39832
30
0.0
0
VERTEX
100
AcDbVertex
100
AcDb2dVertex
8
Layer01
10
279.825019
20
70.492938
30
0.0
0
VERTEX
100
AcDbVertex
100
AcDb2dVertex
8
Layer01
10
279.292026
20
70.587281
30
0.0
0
VERTEX
100
AcDbVertex
100
AcDb2dVertex
8
Layer01
10
278.759033
20
70.68135
30
0.0
0
VERTEX
100
AcDbVertex
100
AcDb2dVertex
8
Layer01
10
278.22604
20
70.775144
30
0.0
0
VERTEX
100
AcDbVertex
100
AcDb2dVertex
8
Layer01
10
277.693047
20
70.868663
30
0.0
0
VERTEX
100
AcDbVertex
100
AcDb2dVertex
8
Layer01
10
277.160053
20
70.961905
30
0.0
0
VERTEX
100
AcDbVertex
100
AcDb2dVertex
8
Layer01
10
276.626997
20
71.054919
30
0.0
0
VERTEX
100
AcDbVertex
100
AcDb2dVertex
8
Layer01
10
276.094004
20
71.147642
30
0.0
0
VERTEX
100
AcDbVertex
100
AcDb2dVertex
8
Layer01
10
275.56101
20
71.240081
30
0.0
0
VERTEX
100
AcDbVertex
100
AcDb2dVertex
8
Layer01
10
275.028017
20
71.332235
30
0.0
0
VERTEX
100
AcDbVertex
100
AcDb2dVertex
8
Layer01
10
274.495024
20
71.424099
30
0.0
0
VERTEX
100
AcDbVertex
100
AcDb2dVertex
8
Layer01
10
273.962031
20
71.515673
30
0.0
0
VERTEX
100
AcDbVertex
100
AcDb2dVertex
8
Layer01
10
273.429038
20
71.606954
30
0.0
0
VERTEX
100
AcDbVertex
100
AcDb2dVertex
8
Layer01
10
272.896045
20
71.697942
30
0.0
0
VERTEX
100
AcDbVertex
100
AcDb2dVertex
8
Layer01
10
272.363052
20
71.788636
30
0.0
0
VERTEX
100
AcDbVertex
100
AcDb2dVertex
8
Layer01
10
271.830058
20
71.879038
30
0.0
0
VERTEX
100
AcDbVertex
100
AcDb2dVertex
8
Layer01
10
271.297002
20
71.969001
30
0.0
0
VERTEX
100
AcDbVertex
100
AcDb2dVertex
8
Layer01
10
270.764009
20
72.058678
30
0.0
0
VERTEX
100
AcDbVertex
100
AcDb2dVertex
8
Layer01
10
270.231016
20
72.148096
30
0.0
0
VERTEX
100
AcDbVertex
100
AcDb2dVertex
8
Layer01
10
269.698022
20
72.23727
30
0.0
0
VERTEX
100
AcDbVertex
100
AcDb2dVertex
8
Layer01
10
269.165029
20
72.326217
30
0.0
0
VERTEX
100
AcDbVertex
100
AcDb2dVertex
8
Layer01
10
268.632036
20
72.414954
30
0.0
0
VERTEX
100
AcDbVertex
100
AcDb2dVertex
8
Layer01
10
268.099043
20
72.503495
30
0.0
0
VERTEX
100
AcDbVertex
100
AcDb2dVertex
8
Layer01
10
267.56605
20
72.591855
30
0.0
0
VERTEX
100
AcDbVertex
100
AcDb2dVertex
8
Layer01
10
267.033057
20
72.680046
30
0.0
0
VERTEX
100
AcDbVertex
100
AcDb2dVertex
8
Layer01
10
266.500064
20
72.768081
30
0.0
0
VERTEX
100
AcDbVertex
100
AcDb2dVertex
8
Layer01
10
265.967007
20
72.85622
30
0.0
0
VERTEX
100
AcDbVertex
100
AcDb2dVertex
8
Layer01
10
265.434014
20
72.944189
30
0.0
0
VERTEX
100
AcDbVertex
100
AcDb2dVertex
8
Layer01
10
264.901021
20
73.031985
30
0.0
0
VERTEX
100
AcDbVertex
100
AcDb2dVertex
8
Layer01
10
264.368027
20
73.119593
30
0.0
0
VERTEX
100
AcDbVertex
100
AcDb2dVertex
8
Layer01
10
263.835034
20
73.206995
30
0.0
0
VERTEX
100
AcDbVertex
100
AcDb2dVertex
8
Layer01
10
263.302041
20
73.294174
30
0.0
0
VERTEX
100
AcDbVertex
100
AcDb2dVertex
8
Layer01
10
262.769048
20
73.38111
30
0.0
0
VERTEX
100
AcDbVertex
100
AcDb2dVertex
8
Layer01
10
262.236055
20
73.467786
30
0.0
0
VERTEX
100
AcDbVertex
100
AcDb2dVertex
8
Layer01
10
261.703062
20
73.554183
30
0.0
0
VERTEX
100
AcDbVertex
100
AcDb2dVertex
8
Layer01
10
261.170069
20
73.640282
30
0.0
0
VERTEX
100
AcDbVertex
100
AcDb2dVertex
8
Layer01
10
260.637012
20
73.725915
30
0.0
0
VERTEX
100
AcDbVertex
100
AcDb2dVertex
8
Layer01
10
260.104019
20
73.811219
30
0.0
0
VERTEX
100
AcDbVertex
100
AcDb2dVertex
8
Layer01
10
259.571026
20
73.8962
30
0.0
0
VERTEX
100
AcDbVertex
100
AcDb2dVertex
8
Layer01
10
259.038033
20
73.980856
30
0.0
0
VERTEX
100
AcDbVertex
100
AcDb2dVertex
8
Layer01
10
258.505039
20
74.065186
30
0.0
0
VERTEX
100
AcDbVertex
100
AcDb2dVertex
8
Layer01
10
257.972046
20
74.14919
30
0.0
0
VERTEX
100
AcDbVertex
100
AcDb2dVertex
8
Layer01
10
257.439053
20
74.232866
30
0.0
0
VERTEX
100
AcDbVertex
100
AcDb2dVertex
8
Layer01
10
256.90606
20
74.316217
30
0.0
0
VERTEX
100
AcDbVertex
100
AcDb2dVertex
8
Layer01
10
256.373067
20
74.399241
30
0.0
0
VERTEX
100
AcDbVertex
100
AcDb2dVertex
8
Layer01
10
255.840074
20
74.481942
30
0.0
0
VERTEX
100
AcDbVertex
100
AcDb2dVertex
8
Layer01
10
255.307001
20
74.56437
30
0.0
0
VERTEX
100
AcDbVertex
100
AcDb2dVertex
8
Layer01
10
254.774008
20
74.646461
30
0.0
0
VERTEX
100
AcDbVertex
100
AcDb2dVertex
8
Layer01
10
254.241015
20
74.728224
30
0.0
0
VERTEX
100
AcDbVertex
100
AcDb2dVertex
8
Layer01
10
253.708022
20
74.809659
30
0.0
0
VERTEX
100
AcDbVertex
100
AcDb2dVertex
8
Layer01
10
253.175029
20
74.890762
30
0.0
0
VERTEX
100
AcDbVertex
100
AcDb2dVertex
8
Layer01
10
252.642035
20
74.971533
30
0.0
0
VERTEX
100
AcDbVertex
100
AcDb2dVertex
8
Layer01
10
252.109042
20
75.051969
30
0.0
0
VERTEX
100
AcDbVertex
100
AcDb2dVertex
8
Layer01
10
251.576049
20
75.132069
30
0.0
0
VERTEX
100
AcDbVertex
100
AcDb2dVertex
8
Layer01
10
251.043056
20
75.21183
30
0.0
0
VERTEX
100
AcDbVertex
100
AcDb2dVertex
8
Layer01
10
250.510063
20
75.291251
30
0.0
0
VERTEX
100
AcDbVertex
100
AcDb2dVertex
8
Layer01
10
249.977006
20
75.370338
30
0.0
0
VERTEX
100
AcDbVertex
100
AcDb2dVertex
8
Layer01
10
249.444013
20
75.449072
30
0.0
0
VERTEX
100
AcDbVertex
100
AcDb2dVertex
8
Layer01
10
248.91102
20
75.52746
30
0.0
0
VERTEX
100
AcDbVertex
100
AcDb2dVertex
8
Layer01
10
248.378027
20
75.605501
30
0.0
0
VERTEX
100
AcDbVertex
100
AcDb2dVertex
8
Layer01
10
247.845034
20
75.683192
30
0.0
0
VERTEX
100
AcDbVertex
100
AcDb2dVertex
8
Layer01
10
247.312041
20
75.760531
30
0.0
0
VERTEX
100
AcDbVertex
100
AcDb2dVertex
8
Layer01
10
246.779047
20
75.837518
30
0.0
0
VERTEX
100
AcDbVertex
100
AcDb2dVertex
8
Layer01
10
246.246054
20
75.914149
30
0.0
0
VERTEX
100
AcDbVertex
100
AcDb2dVertex
8
Layer01
10
245.713061
20
75.990423
30
0.0
0
VERTEX
100
AcDbVertex
100
AcDb2dVertex
8
Layer01
10
245.180068
20
76.066339
30
0.0
0
VERTEX
100
AcDbVertex
100
AcDb2dVertex
8
Layer01
10
244.647011
20
76.141904
30
0.0
0
VERTEX
100
AcDbVertex
100
AcDb2dVertex
8
Layer01
10
244.114018
20
76.217098
30
0.0
0
VERTEX
100
AcDbVertex
100
AcDb2dVertex
8
Layer01
10
243.581025
20
76.291927
30
0.0
0
VERTEX
100
AcDbVertex
100
AcDb2dVertex
8
Layer01
10
243.048032
20
76.366389
30
0.0
0
VERTEX
100
AcDbVertex
100
AcDb2dVertex
8
Layer01
10
242.515039
20
76.440482
30
0.0
0
VERTEX
100
AcDbVertex
100
AcDb2dVertex
8
Layer01
10
241.982046
20
76.514204
30
0.0
0
VERTEX
100
AcDbVertex
100
AcDb2dVertex
8
Layer01
10
241.449052
20
76.587554
30
0.0
0
VERTEX
100
AcDbVertex
100
AcDb2dVertex
8
Layer01
10
240.916059
20
76.660528
30
0.0
0
VERTEX
100
AcDbVertex
100
AcDb2dVertex
8
Layer01
10
240.383066
20
76.733125
30
0.0
0
VERTEX
100
AcDbVertex
100
AcDb2dVertex
8
Layer01
10
239.850073
20
76.805343
30
0.0
0
VERTEX
100
AcDbVertex
100
AcDb2dVertex
8
Layer01
10
239.317001
20
76.87719
30
0.0
0
VERTEX
100
AcDbVertex
100
AcDb2dVertex
8
Layer01
10
238.784007
20
76.948643
30
0.0
0
VERTEX
100
AcDbVertex
100
AcDb2dVertex
8
Layer01
10
238.251014
20
77.01971
30
0.0
0
VERTEX
100
AcDbVertex
100
AcDb2dVertex
8
Layer01
10
237.718021
20
77.090391
30
0.0
0
VERTEX
100
AcDbVertex
100
AcDb2dVertex
8
Layer01
10
237.185028
20
77.160683
30
0.0
0
VERTEX
100
AcDbVertex
100
AcDb2dVertex
8
Layer01
10
236.652035
20
77.230583
30
0.0
0
VERTEX
100
AcDbVertex
100
AcDb2dVertex
8
Layer01
10
236.119042
20
77.300092
30
0.0
0
VERTEX
100
AcDbVertex
100
AcDb2dVertex
8
Layer01
10
235.586049
20
77.369205
30
0.0
0
VERTEX
100
AcDbVertex
100
AcDb2dVertex
8
Layer01
10
235.053055
20
77.437922
30
0.0
0
VERTEX
100
AcDbVertex
100
AcDb2dVertex
8
Layer01
10
234.520062
20
77.50624
30
0.0
0
VERTEX
100
AcDbVertex
100
AcDb2dVertex
8
Layer01
10
233.987006
20
77.574167
30
0.0
0
VERTEX
100
AcDbVertex
100
AcDb2dVertex
8
Layer01
10
233.454012
20
77.641682
30
0.0
0
VERTEX
100
AcDbVertex
100
AcDb2dVertex
8
Layer01
10
232.921019
20
77.708794
30
0.0
0
VERTEX
100
AcDbVertex
100
AcDb2dVertex
8
Layer01
10
232.388026
20
77.7755
30
0.0
0
VERTEX
100
AcDbVertex
100
AcDb2dVertex
8
Layer01
10
231.855033
20
77.841798
30
0.0
0
VERTEX
100
AcDbVertex
100
AcDb2dVertex
8
Layer01
10
231.32204
20
77.907687
30
0.0
0
VERTEX
100
AcDbVertex
100
AcDb2dVertex
8
Layer01
10
230.789047
20
77.973164
30
0.0
0
VERTEX
100
AcDbVertex
100
AcDb2dVertex
8
Layer01
10
230.256054
20
78.038227
30
0.0
0
VERTEX
100
AcDbVertex
100
AcDb2dVertex
8
Layer01
10
229.72306
20
78.102876
30
0.0
0
VERTEX
100
AcDbVertex
100
AcDb2dVertex
8
Layer01
10
229.190067
20
78.167107
30
0.0
0
VERTEX
100
AcDbVertex
100
AcDb2dVertex
8
Layer01
10
228.657011
20
78.230927
30
0.0
0
VERTEX
100
AcDbVertex
100
AcDb2dVertex
8
Layer01
10
228.124018
20
78.294319
30
0.0
0
VERTEX
100
AcDbVertex
100
AcDb2dVertex
8
Layer01
10
227.591024
20
78.357288
30
0.0
0
VERTEX
100
AcDbVertex
100
AcDb2dVertex
8
Layer01
10
227.058031
20
78.419833
30
0.0
0
VERTEX
100
AcDbVertex
100
AcDb2dVertex
8
Layer01
10
226.525038
20
78.481951
30
0.0
0
VERTEX
100
AcDbVertex
100
AcDb2dVertex
8
Layer01
10
225.992045
20
78.543641
30
0.0
0
VERTEX
100
AcDbVertex
100
AcDb2dVertex
8
Layer01
10
225.459052
20
78.6049
30
0.0
0
VERTEX
100
AcDbVertex
100
AcDb2dVertex
8
Layer01
10
224.926059
20
78.665728
30
0.0
0
VERTEX
100
AcDbVertex
100
AcDb2dVertex
8
Layer01
10
224.393066
20
78.726122
30
0.0
0
VERTEX
100
AcDbVertex
100
AcDb2dVertex
8
Layer01
10
223.860072
20
78.78608
30
0.0
0
VERTEX
100
AcDbVertex
100
AcDb2dVertex
8
Layer01
10
223.327
20
78.845507
30
0.0
0
VERTEX
100
AcDbVertex
100
AcDb2dVertex
8
Layer01
10
222.794007
20
78.904494
30
0.0
0
VERTEX
100
AcDbVertex
100
AcDb2dVertex
8
Layer01
10
222.261014
20
78.963054
30
0.0
0
VERTEX
100
AcDbVertex
100
AcDb2dVertex
8
Layer01
10
221.72802
20
79.021193
30
0.0
0
VERTEX
100
AcDbVertex
100
AcDb2dVertex
8
Layer01
10
221.195027
20
79.078914
30
0.0
0
VERTEX
100
AcDbVertex
100
AcDb2dVertex
8
Layer01
10
220.662034
20
79.136221
30
0.0
0
VERTEX
100
AcDbVertex
100
AcDb2dVertex
8
Layer01
10
220.129041
20
79.193114
30
0.0
0
VERTEX
100
AcDbVertex
100
AcDb2dVertex
8
Layer01
10
219.596048
20
79.249593
30
0.0
0
VERTEX
100
AcDbVertex
100
AcDb2dVertex
8
Layer01
10
219.063055
20
79.305655
30
0.0
0
VERTEX
100
AcDbVertex
100
AcDb2dVertex
8
Layer01
10
218.530062
20
79.361295
30
0.0
0
VERTEX
100
AcDbVertex
100
AcDb2dVertex
8
Layer01
10
217.997005
20
79.416927
30
0.0
0
VERTEX
100
AcDbVertex
100
AcDb2dVertex
8
Layer01
10
217.464012
20
79.47208
30
0.0
0
VERTEX
100
AcDbVertex
100
AcDb2dVertex
8
Layer01
10
216.931019
20
79.526715
30
0.0
0
VERTEX
100
AcDbVertex
100
AcDb2dVertex
8
Layer01
10
216.398026
20
79.580788
30
0.0
0
VERTEX
100
AcDbVertex
100
AcDb2dVertex
8
Layer01
10
215.865032
20
79.634252
30
0.0
0
VERTEX
100
AcDbVertex
100
AcDb2dVertex
8
Layer01
10
215.332039
20
79.687062
30
0.0
0
VERTEX
100
AcDbVertex
100
AcDb2dVertex
8
Layer01
10
214.799046
20
79.739174
30
0.0
0
VERTEX
100
AcDbVertex
100
AcDb2dVertex
8
Layer01
10
214.266053
20
79.790549
30
0.0
0
VERTEX
100
AcDbVertex
100
AcDb2dVertex
8
Layer01
10
213.73306
20
79.841147
30
0.0
0
VERTEX
100
AcDbVertex
100
AcDb2dVertex
8
Layer01
10
213.200067
20
79.890937
30
0.0
0
VERTEX
100
AcDbVertex
100
AcDb2dVertex
8
Layer01
10
212.66701
20
79.939269
30
0.0
0
VERTEX
100
AcDbVertex
100
AcDb2dVertex
8
Layer01
10
212.134017
20
79.986786
30
0.0
0
VERTEX
100
AcDbVertex
100
AcDb2dVertex
8
Layer01
10
211.601024
20
80.033526
30
0.0
0
VERTEX
100
AcDbVertex
100
AcDb2dVertex
8
Layer01
10
211.068031
20
80.079525
30
0.0
0
VERTEX
100
AcDbVertex
100
AcDb2dVertex
8
Layer01
10
210.535037
20
80.124823
30
0.0
0
VERTEX
100
AcDbVertex
100
AcDb2dVertex
8
Layer01
10
210.002044
20
80.169463
30
0.0
0
VERTEX
100
AcDbVertex
100
AcDb2dVertex
8
Layer01
10
209.469051
20
80.21349
30
0.0
0
VERTEX
100
AcDbVertex
100
AcDb2dVertex
8
Layer01
10
208.936058
20
80.256948
30
0.0
0
VERTEX
100
AcDbVertex
100
AcDb2dVertex
8
Layer01
10
208.403065
20
80.299882
30
0.0
0
VERTEX
100
AcDbVertex
100
AcDb2dVertex
8
Layer01
10
207.870072
20
80.342336
30
0.0
0
VERTEX
100
AcDbVertex
100
AcDb2dVertex
8
Layer01
10
207.336999
20
80.384773
30
0.0
0
VERTEX
100
AcDbVertex
100
AcDb2dVertex
8
Layer01
10
206.804006
20
80.426773
30
0.0
0
VERTEX
100
AcDbVertex
100
AcDb2dVertex
8
Layer01
10
206.271013
20
80.468346
30
0.0
0
VERTEX
100
AcDbVertex
100
AcDb2dVertex
8
Layer01
10
205.73802
20
80.509493
30
0.0
0
VERTEX
100
AcDbVertex
100
AcDb2dVertex
8
Layer01
10
205.205027
20
80.550215
30
0.0
0
VERTEX
100
AcDbVertex
100
AcDb2dVertex
8
Layer01
10
204.672034
20
80.590508
30
0.0
0
VERTEX
100
AcDbVertex
100
AcDb2dVertex
8
Layer01
10
204.13904
20
80.63037
30
0.0
0
VERTEX
100
AcDbVertex
100
AcDb2dVertex
8
Layer01
10
203.606047
20
80.669795
30
0.0
0
VERTEX
100
AcDbVertex
100
AcDb2dVertex
8
Layer01
10
203.073054
20
80.708777
30
0.0
0
VERTEX
100
AcDbVertex
100
AcDb2dVertex
8
Layer01
10
202.540061
20
80.74731
30
0.0
0
VERTEX
100
AcDbVertex
100
AcDb2dVertex
8
Layer01
10
202.007004
20
80.78529
30
0.0
0
VERTEX
100
AcDbVertex
100
AcDb2dVertex
8
Layer01
10
201.474011
20
80.82281
30
0.0
0
VERTEX
100
AcDbVertex
100
AcDb2dVertex
8
Layer01
10
200.941018
20
80.859875
30
0.0
0
VERTEX
100
AcDbVertex
100
AcDb2dVertex
8
Layer01
10
200.408025
20
80.896486
30
0.0
0
VERTEX
100
AcDbVertex
100
AcDb2dVertex
8
Layer01
10
199.875032
20
80.932644
30
0.0
0
VERTEX
100
AcDbVertex
100
AcDb2dVertex
8
Layer01
10
199.342039
20
80.968349
30
0.0
0
VERTEX
100
AcDbVertex
100
AcDb2dVertex
8
Layer01
10
198.809045
20
81.003603
30
0.0
0
VERTEX
100
AcDbVertex
100
AcDb2dVertex
8
Layer01
10
198.276052
20
81.038405
30
0.0
0
VERTEX
100
AcDbVertex
100
AcDb2dVertex
8
Layer01
10
197.743059
20
81.072757
30
0.0
0
VERTEX
100
AcDbVertex
100
AcDb2dVertex
8
Layer01
10
197.210066
20
81.106659
30
0.0
0
VERTEX
100
AcDbVertex
100
AcDb2dVertex
8
Layer01
10
196.677009
20
81.140115
30
0.0
0
VERTEX
100
AcDbVertex
100
AcDb2dVertex
8
Layer01
10
196.144016
20
81.173118
30
0.0
0
VERTEX
100
AcDbVertex
100
AcDb2dVertex
8
Layer01
10
195.611023
20
81.205675
30
0.0
0
VERTEX
100
AcDbVertex
100
AcDb2dVertex
8
Layer01
10
195.07803
20
81.237785
30
0.0
0
VERTEX
100
AcDbVertex
100
AcDb2dVertex
8
Layer01
10
194.545037
20
81.26945
30
0.0
0
VERTEX
100
AcDbVertex
100
AcDb2dVertex
8
Layer01
10
194.012044
20
81.300671
30
0.0
0
VERTEX
100
AcDbVertex
100
AcDb2dVertex
8
Layer01
10
193.479051
20
81.331449
30
0.0
0
VERTEX
100
AcDbVertex
100
AcDb2dVertex
8
Layer01
10
192.946057
20
81.361784
30
0.0
0
VERTEX
100
AcDbVertex
100
AcDb2dVertex
8
Layer01
10
192.413064
20
81.391677
30
0.0
0
VERTEX
100
AcDbVertex
100
AcDb2dVertex
8
Layer01
10
191.880071
20
81.421129
30
0.0
0
VERTEX
100
AcDbVertex
100
AcDb2dVertex
8
Layer01
10
191.347014
20
81.450147
30
0.0
0
VERTEX
100
AcDbVertex
100
AcDb2dVertex
8
Layer01
10
190.814021
20
81.478722
30
0.0
0
VERTEX
100
AcDbVertex
100
AcDb2dVertex
8
Layer01
10
190.281028
20
81.506858
30
0.0
0
VERTEX
100
AcDbVertex
100
AcDb2dVertex
8
Layer01
10
189.748035
20
81.534556
30
0.0
0
VERTEX
100
AcDbVertex
100
AcDb2dVertex
8
Layer01
10
189.215042
20
81.561817
30
0.0
0
VERTEX
100
AcDbVertex
100
AcDb2dVertex
8
Layer01
10
188.682049
20
81.58864
30
0.0
0
VERTEX
100
AcDbVertex
100
AcDb2dVertex
8
Layer01
10
188.149056
20
81.615027
30
0.0
0
VERTEX
100
AcDbVertex
100
AcDb2dVertex
8
Layer01
10
187.616063
20
81.640978
30
0.0
0
VERTEX
100
AcDbVertex
100
AcDb2dVertex
8
Layer01
10
187.083069
20
81.666494
30
0.0
0
VERTEX
100
AcDbVertex
100
AcDb2dVertex
8
Layer01
10
186.550076
20
81.691574
30
0.0
0
VERTEX
100
AcDbVertex
100
AcDb2dVertex
8
Layer01
10
186.017004
20
81.716223
30
0.0
0
VERTEX
100
AcDbVertex
100
AcDb2dVertex
8
Layer01
10
185.484011
20
81.740433
30
0.0
0
VERTEX
100
AcDbVertex
100
AcDb2dVertex
8
Layer01
10
184.951017
20
81.76421
30
0.0
0
VERTEX
100
AcDbVertex
100
AcDb2dVertex
8
Layer01
10
184.418024
20
81.787553
30
0.0
0
VERTEX
100
AcDbVertex
100
AcDb2dVertex
8
Layer01
10
183.885031
20
81.810463
30
0.0
0
VERTEX
100
AcDbVertex
100
AcDb2dVertex
8
Layer01
10
183.352038
20
81.832941
30
0.0
0
VERTEX
100
AcDbVertex
100
AcDb2dVertex
8
Layer01
10
182.819045
20
81.854985
30
0.0
0
VERTEX
100
AcDbVertex
100
AcDb2dVertex
8
Layer01
10
182.286052
20
81.876598
30
0.0
0
VERTEX
100
AcDbVertex
100
AcDb2dVertex
8
Layer01
10
181.753059
20
81.897778
30
0.0
0
VERTEX
100
AcDbVertex
100
AcDb2dVertex
8
Layer01
10
181.220065
20
81.918526
30
0.0
0
VERTEX
100
AcDbVertex
100
AcDb2dVertex
8
Layer01
10
180.687009
20
81.938845
30
0.0
0
VERTEX
100
AcDbVertex
100
AcDb2dVertex
8
Layer01
10
180.154016
20
81.95873
30
0.0
0
VERTEX
100
AcDbVertex
100
AcDb2dVertex
8
Layer01
10
179.621022
20
81.978184
30
0.0
0
VERTEX
100
AcDbVertex
100
AcDb2dVertex
8
Layer01
10
179.088029
20
81.997208
30
0.0
0
VERTEX
100
AcDbVertex
100
AcDb2dVertex
8
Layer01
10
178.555036
20
82.0158
30
0.0
0
VERTEX
100
AcDbVertex
100
AcDb2dVertex
8
Layer01
10
178.022043
20
82.033962
30
0.0
0
VERTEX
100
AcDbVertex
100
AcDb2dVertex
8
Layer01
10
177.48905
20
82.051693
30
0.0
0
VERTEX
100
AcDbVertex
100
AcDb2dVertex
8
Layer01
10
176.956057
20
82.068994
30
0.0
0
VERTEX
100
AcDbVertex
100
AcDb2dVertex
8
Layer01
10
176.423064
20
82.085865
30
0.0
0
VERTEX
100
AcDbVertex
100
AcDb2dVertex
8
Layer01
10
175.890071
20
82.102305
30
0.0
0
VERTEX
100
AcDbVertex
100
AcDb2dVertex
8
Layer01
10
175.357014
20
82.118317
30
0.0
0
VERTEX
100
AcDbVertex
100
AcDb2dVertex
8
Layer01
10
174.824021
20
82.133896
30
0.0
0
VERTEX
100
AcDbVertex
100
AcDb2dVertex
8
Layer01
10
174.291028
20
82.149045
30
0.0
0
VERTEX
100
AcDbVertex
100
AcDb2dVertex
8
Layer01
10
173.758034
20
82.163763
30
0.0
0
VERTEX
100
AcDbVertex
100
AcDb2dVertex
8
Layer01
10
173.225041
20
82.178051
30
0.0
0
VERTEX
100
AcDbVertex
100
AcDb2dVertex
8
Layer01
10
172.692048
20
82.191907
30
0.0
0
VERTEX
100
AcDbVertex
100
AcDb2dVertex
8
Layer01
10
172.159055
20
82.205333
30
0.0
0
VERTEX
100
AcDbVertex
100
AcDb2dVertex
8
Layer01
10
171.626062
20
82.218326
30
0.0
0
VERTEX
100
AcDbVertex
100
AcDb2dVertex
8
Layer01
10
171.093069
20
82.230888
30
0.0
0
VERTEX
100
AcDbVertex
100
AcDb2dVertex
8
Layer01
10
170.560076
20
82.243018
30
0.0
0
VERTEX
100
AcDbVertex
100
AcDb2dVertex
8
Layer01
10
170.027003
20
82.25482
30
0.0
0
VERTEX
100
AcDbVertex
100
AcDb2dVertex
8
Layer01
10
169.49401
20
82.26618
30
0.0
0
VERTEX
100
AcDbVertex
100
AcDb2dVertex
8
Layer01
10
168.961017
20
82.27709
30
0.0
0
VERTEX
100
AcDbVertex
100
AcDb2dVertex
8
Layer01
10
168.428024
20
82.287544
30
0.0
0
VERTEX
100
AcDbVertex
100
AcDb2dVertex
8
Layer01
10
167.89503
20
82.297534
30
0.0
0
VERTEX
100
AcDbVertex
100
AcDb2dVertex
8
Layer01
10
167.362037
20
82.307054
30
0.0
0
VERTEX
100
AcDbVertex
100
AcDb2dVertex
8
Layer01
10
166.829044
20
82.316102
30
0.0
0
VERTEX
100
AcDbVertex
100
AcDb2dVertex
8
Layer01
10
166.296051
20
82.324675
30
0.0
0
VERTEX
100
AcDbVertex
100
AcDb2dVertex
8
Layer01
10
165.763058
20
82.332773
30
0.0
0
VERTEX
100
AcDbVertex
100
AcDb2dVertex
8
Layer01
10
165.230065
20
82.340398
30
0.0
0
VERTEX
100
AcDbVertex
100
AcDb2dVertex
8
Layer01
10
164.697008
20
82.347131
30
0.0
0
VERTEX
100
AcDbVertex
100
AcDb2dVertex
8
Layer01
10
164.164015
20
82.353437
30
0.0
0
VERTEX
100
AcDbVertex
100
AcDb2dVertex
8
Layer01
10
163.631022
20
82.359358
30
0.0
0
VERTEX
100
AcDbVertex
100
AcDb2dVertex
8
Layer01
10
163.098029
20
82.364938
30
0.0
0
VERTEX
100
AcDbVertex
100
AcDb2dVertex
8
Layer01
10
162.565036
20
82.370221
30
0.0
0
VERTEX
100
AcDbVertex
100
AcDb2dVertex
8
Layer01
10
162.032042
20
82.375249
30
0.0
0
VERTEX
100
AcDbVertex
100
AcDb2dVertex
8
Layer01
10
161.499049
20
82.380063
30
0.0
0
VERTEX
100
AcDbVertex
100
AcDb2dVertex
8
Layer01
10
160.966056
20
82.384703
30
0.0
0
VERTEX
100
AcDbVertex
100
AcDb2dVertex
8
Layer01
10
160.433063
20
82.389202
30
0.0
0
VERTEX
100
AcDbVertex
100
AcDb2dVertex
8
Layer01
10
159.90007
20
82.393591
30
0.0
0
VERTEX
100
AcDbVertex
100
AcDb2dVertex
8
Layer01
10
159.367013
20
82.39854
30
0.0
0
VERTEX
100
AcDbVertex
100
AcDb2dVertex
8
Layer01
10
158.83402
20
82.40337
30
0.0
0
VERTEX
100
AcDbVertex
100
AcDb2dVertex
8
Layer01
10
158.301027
20
82.408047
30
0.0
0
VERTEX
100
AcDbVertex
100
AcDb2dVertex
8
Layer01
10
157.768034
20
82.412529
30
0.0
0
VERTEX
100
AcDbVertex
100
AcDb2dVertex
8
Layer01
10
157.235041
20
82.41677
30
0.0
0
VERTEX
100
AcDbVertex
100
AcDb2dVertex
8
Layer01
10
156.702048
20
82.420723
30
0.0
0
VERTEX
100
AcDbVertex
100
AcDb2dVertex
8
Layer01
10
156.169054
20
82.424339
30
0.0
0
VERTEX
100
AcDbVertex
100
AcDb2dVertex
8
Layer01
10
155.636061
20
82.427567
30
0.0
0
VERTEX
100
AcDbVertex
100
AcDb2dVertex
8
Layer01
10
155.103068
20
82.430357
30
0.0
0
VERTEX
100
AcDbVertex
100
AcDb2dVertex
8
Layer01
10
154.570075
20
82.43266
30
0.0
0
VERTEX
100
AcDbVertex
100
AcDb2dVertex
8
Layer01
10
154.037002
20
82.434
30
0.0
0
VERTEX
100
AcDbVertex
100
AcDb2dVertex
8
Layer01
10
153.504009
20
82.434795
30
0.0
0
VERTEX
100
AcDbVertex
100
AcDb2dVertex
8
Layer01
10
152.971016
20
82.435038
30
0.0
0
VERTEX
100
AcDbVertex
100
AcDb2dVertex
8
Layer01
10
152.438023
20
82.434723
30
0.0
0
VERTEX
100
AcDbVertex
100
AcDb2dVertex
8
Layer01
10
151.90503
20
82.433847
30
0.0
0
VERTEX
100
AcDbVertex
100
AcDb2dVertex
8
Layer01
10
151.372037
20
82.432407
30
0.0
0
VERTEX
100
AcDbVertex
100
AcDb2dVertex
8
Layer01
10
150.839044
20
82.430406
30
0.0
0
VERTEX
100
AcDbVertex
100
AcDb2dVertex
8
Layer01
10
150.30605
20
82.427842
30
0.0
0
VERTEX
100
AcDbVertex
100
AcDb2dVertex
8
Layer01
10
149.773057
20
82.42472
30
0.0
0
VERTEX
100
AcDbVertex
100
AcDb2dVertex
8
Layer01
10
149.240064
20
82.421042
30
0.0
0
VERTEX
100
AcDbVertex
100
AcDb2dVertex
8
Layer01
10
148.707007
20
82.416917
30
0.0
0
VERTEX
100
AcDbVertex
100
AcDb2dVertex
8
Layer01
10
148.174014
20
82.412234
30
0.0
0
VERTEX
100
AcDbVertex
100
AcDb2dVertex
8
Layer01
10
147.641021
20
82.406989
30
0.0
0
VERTEX
100
AcDbVertex
100
AcDb2dVertex
8
Layer01
10
147.108028
20
82.401177
30
0.0
0
VERTEX
100
AcDbVertex
100
AcDb2dVertex
8
Layer01
10
146.575035
20
82.394791
30
0.0
0
VERTEX
100
AcDbVertex
100
AcDb2dVertex
8
Layer01
10
146.042042
20
82.387828
30
0.0
0
VERTEX
100
AcDbVertex
100
AcDb2dVertex
8
Layer01
10
145.509049
20
82.380282
30
0.0
0
VERTEX
100
AcDbVertex
100
AcDb2dVertex
8
Layer01
10
144.976056
20
82.372149
30
0.0
0
VERTEX
100
AcDbVertex
100
AcDb2dVertex
8
Layer01
10
144.443062
20
82.363422
30
0.0
0
VERTEX
100
AcDbVertex
100
AcDb2dVertex
8
Layer01
10
143.910069
20
82.354098
30
0.0
0
VERTEX
100
AcDbVertex
100
AcDb2dVertex
8
Layer01
10
143.377013
20
82.344168
30
0.0
0
VERTEX
100
AcDbVertex
100
AcDb2dVertex
8
Layer01
10
142.844019
20
82.333631
30
0.0
0
VERTEX
100
AcDbVertex
100
AcDb2dVertex
8
Layer01
10
142.311026
20
82.322481
30
0.0
0
VERTEX
100
AcDbVertex
100
AcDb2dVertex
8
Layer01
10
141.778033
20
82.310713
30
0.0
0
VERTEX
100
AcDbVertex
100
AcDb2dVertex
8
Layer01
10
141.24504
20
82.29832
30
0.0
0
VERTEX
100
AcDbVertex
100
AcDb2dVertex
8
Layer01
10
140.712047
20
82.285299
30
0.0
0
VERTEX
100
AcDbVertex
100
AcDb2dVertex
8
Layer01
10
140.179054
20
82.271643
30
0.0
0
VERTEX
100
AcDbVertex
100
AcDb2dVertex
8
Layer01
10
139.646061
20
82.257348
30
0.0
0
VERTEX
100
AcDbVertex
100
AcDb2dVertex
8
Layer01
10
139.113067
20
82.242408
30
0.0
0
VERTEX
100
AcDbVertex
100
AcDb2dVertex
8
Layer01
10
138.580074
20
82.226818
30
0.0
0
VERTEX
100
AcDbVertex
100
AcDb2dVertex
8
Layer01
10
138.047002
20
82.210571
30
0.0
0
VERTEX
100
AcDbVertex
100
AcDb2dVertex
8
Layer01
10
137.514009
20
82.193666
30
0.0
0
VERTEX
100
AcDbVertex
100
AcDb2dVertex
8
Layer01
10
136.981016
20
82.176095
30
0.0
0
VERTEX
100
AcDbVertex
100
AcDb2dVertex
8
Layer01
10
136.448022
20
82.157851
30
0.0
0
VERTEX
100
AcDbVertex
100
AcDb2dVertex
8
Layer01
10
135.915029
20
82.138931
30
0.0
0
VERTEX
100
AcDbVertex
100
AcDb2dVertex
8
Layer01
10
135.382036
20
82.119328
30
0.0
0
VERTEX
100
AcDbVertex
100
AcDb2dVertex
8
Layer01
10
134.849043
20
82.099037
30
0.0
0
VERTEX
100
AcDbVertex
100
AcDb2dVertex
8
Layer01
10
134.31605
20
82.078052
30
0.0
0
VERTEX
100
AcDbVertex
100
AcDb2dVertex
8
Layer01
10
133.783057
20
82.056368
30
0.0
0
VERTEX
100
AcDbVertex
100
AcDb2dVertex
8
Layer01
10
133.250064
20
82.033979
30
0.0
0
VERTEX
100
AcDbVertex
100
AcDb2dVertex
8
Layer01
10
132.716999
20
82.010877
30
0.0
0
VERTEX
100
AcDbVertex
100
AcDb2dVertex
8
Layer01
10
132.183998
20
81.98706
30
0.0
0
VERTEX
100
AcDbVertex
100
AcDb2dVertex
8
Layer01
10
131.650997
20
81.962523
30
0.0
0
VERTEX
100
AcDbVertex
100
AcDb2dVertex
8
Layer01
10
131.117996
20
81.937258
30
0.0
0
VERTEX
100
AcDbVertex
100
AcDb2dVertex
8
Layer01
10
130.584995
20
81.911261
30
0.0
0
VERTEX
100
AcDbVertex
100
AcDb2dVertex
8
Layer01
10
130.051994
20
81.884525
30
0.0
0
VERTEX
100
AcDbVertex
100
AcDb2dVertex
8
Layer01
10
129.518992
20
81.857046
30
0.0
0
VERTEX
100
AcDbVertex
100
AcDb2dVertex
8
Layer01
10
128.985991
20
81.828817
30
0.0
0
VERTEX
100
AcDbVertex
100
AcDb2dVertex
8
Layer01
10
128.45299
20
81.799833
30
0.0
0
VERTEX
100
AcDbVertex
100
AcDb2dVertex
8
Layer01
10
127.386996
20
81.739577
30
0.0
0
VERTEX
100
AcDbVertex
100
AcDb2dVertex
8
Layer01
10
126.853995
20
81.708295
30
0.0
0
VERTEX
100
AcDbVertex
100
AcDb2dVertex
8
Layer01
10
126.320994
20
81.676234
30
0.0
0
VERTEX
100
AcDbVertex
100
AcDb2dVertex
8
Layer01
10
125.787993
20
81.64339
30
0.0
0
VERTEX
100
AcDbVertex
100
AcDb2dVertex
8
Layer01
10
125.254992
20
81.609757
30
0.0
0
VERTEX
100
AcDbVertex
100
AcDb2dVertex
8
Layer01
10
124.721991
20
81.575329
30
0.0
0
VERTEX
100
AcDbVertex
100
AcDb2dVertex
8
Layer01
10
124.18899
20
81.5401
30
0.0
0
VERTEX
100
AcDbVertex
100
AcDb2dVertex
8
Layer01
10
123.655988
20
81.504065
30
0.0
0
VERTEX
100
AcDbVertex
100
AcDb2dVertex
8
Layer01
10
123.122987
20
81.467218
30
0.0
0
VERTEX
100
AcDbVertex
100
AcDb2dVertex
8
Layer01
10
122.057001
20
81.391066
30
0.0
0
VERTEX
100
AcDbVertex
100
AcDb2dVertex
8
Layer01
10
121.524
20
81.351749
30
0.0
0
VERTEX
100
AcDbVertex
100
AcDb2dVertex
8
Layer01
10
120.990999
20
81.311596
30
0.0
0
VERTEX
100
AcDbVertex
100
AcDb2dVertex
8
Layer01
10
120.457998
20
81.270603
30
0.0
0
VERTEX
100
AcDbVertex
100
AcDb2dVertex
8
Layer01
10
119.924997
20
81.228763
30
0.0
0
VERTEX
100
AcDbVertex
100
AcDb2dVertex
8
Layer01
10
119.391996
20
81.186072
30
0.0
0
VERTEX
100
AcDbVertex
100
AcDb2dVertex
8
Layer01
10
118.858995
20
81.142523
30
0.0
0
VERTEX
100
AcDbVertex
100
AcDb2dVertex
8
Layer01
10
118.325994
20
81.09811
30
0.0
0
VERTEX
100
AcDbVertex
100
AcDb2dVertex
8
Layer01
10
117.792993
20
81.052828
30
0.0
0
VERTEX
100
AcDbVertex
100
AcDb2dVertex
8
Layer01
10
116.726998
20
80.959608
30
0.0
0
VERTEX
100
AcDbVertex
100
AcDb2dVertex
8
Layer01
10
116.193997
20
80.91166
30
0.0
0
VERTEX
100
AcDbVertex
100
AcDb2dVertex
8
Layer01
10
115.660996
20
80.862824
30
0.0
0
VERTEX
100
AcDbVertex
100
AcDb2dVertex
8
Layer01
10
115.127995
20
80.813096
30
0.0
0
VERTEX
100
AcDbVertex
100
AcDb2dVertex
8
Layer01
10
114.594994
20
80.762472
30
0.0
0
VERTEX
100
AcDbVertex
100
AcDb2dVertex
8
Layer01
10
114.061993
20
80.710947
30
0.0
0
VERTEX
100
AcDbVertex
100
AcDb2dVertex
8
Layer01
10
113.528992
20
80.658517
30
0.0
0
VERTEX
100
AcDbVertex
100
AcDb2dVertex
8
Layer01
10
112.995991
20
80.605176
30
0.0
0
VERTEX
100
AcDbVertex
100
AcDb2dVertex
8
Layer01
10
112.46299
20
80.550919
30
0.0
0
VERTEX
100
AcDbVertex
100
AcDb2dVertex
8
Layer01
10
111.396995
20
80.439748
30
0.0
0
VERTEX
100
AcDbVertex
100
AcDb2dVertex
8
Layer01
10
110.863994
20
80.38281
30
0.0
0
VERTEX
100
AcDbVertex
100
AcDb2dVertex
8
Layer01
10
110.330993
20
80.324906
30
0.0
0
VERTEX
100
AcDbVertex
100
AcDb2dVertex
8
Layer01
10
109.797992
20
80.266018
30
0.0
0
VERTEX
100
AcDbVertex
100
AcDb2dVertex
8
Layer01
10
109.264991
20
80.206128
30
0.0
0
VERTEX
100
AcDbVertex
100
AcDb2dVertex
8
Layer01
10
108.73199
20
80.145217
30
0.0
0
VERTEX
100
AcDbVertex
100
AcDb2dVertex
8
Layer01
10
108.198989
20
80.08327
30
0.0
0
VERTEX
100
AcDbVertex
100
AcDb2dVertex
8
Layer01
10
107.665988
20
80.020269
30
0.0
0
VERTEX
100
AcDbVertex
100
AcDb2dVertex
8
Layer01
10
107.132987
20
79.9562
30
0.0
0
VERTEX
100
AcDbVertex
100
AcDb2dVertex
8
Layer01
10
106.067001
20
79.824605
30
0.0
0
VERTEX
100
AcDbVertex
100
AcDb2dVertex
8
Layer01
10
105.533999
20
79.757072
30
0.0
0
VERTEX
100
AcDbVertex
100
AcDb2dVertex
8
Layer01
10
105.000998
20
79.688457
30
0.0
0
VERTEX
100
AcDbVertex
100
AcDb2dVertex
8
Layer01
10
104.467997
20
79.61877
30
0.0
0
VERTEX
100
AcDbVertex
100
AcDb2dVertex
8
Layer01
10
103.934996
20
79.548019
30
0.0
0
VERTEX
100
AcDbVertex
100
AcDb2dVertex
8
Layer01
10
103.401995
20
79.476216
30
0.0
0
VERTEX
100
AcDbVertex
100
AcDb2dVertex
8
Layer01
10
102.868994
20
79.403371
30
0.0
0
VERTEX
100
AcDbVertex
100
AcDb2dVertex
8
Layer01
10
102.335993
20
79.329495
30
0.0
0
VERTEX
100
AcDbVertex
100
AcDb2dVertex
8
Layer01
10
101.802992
20
79.2546
30
0.0
0
VERTEX
100
AcDbVertex
100
AcDb2dVertex
8
Layer01
10
100.736998
20
79.101932
30
0.0
0
VERTEX
100
AcDbVertex
100
AcDb2dVertex
8
Layer01
10
100.203997
20
79.024166
30
0.0
0
VERTEX
100
AcDbVertex
100
AcDb2dVertex
8
Layer01
10
99.670995
20
78.945394
30
0.0
0
VERTEX
100
AcDbVertex
100
AcDb2dVertex
8
Layer01
10
99.137994
20
78.865612
30
0.0
0
VERTEX
100
AcDbVertex
100
AcDb2dVertex
8
Layer01
10
98.604993
20
78.784816
30
0.0
0
VERTEX
100
AcDbVertex
100
AcDb2dVertex
8
Layer01
10
98.071992
20
78.702998
30
0.0
0
VERTEX
100
AcDbVertex
100
AcDb2dVertex
8
Layer01
10
97.538991
20
78.620154
30
0.0
0
VERTEX
100
AcDbVertex
100
AcDb2dVertex
8
Layer01
10
97.00599
20
78.536276
30
0.0
0
VERTEX
100
AcDbVertex
100
AcDb2dVertex
8
Layer01
10
96.472989
20
78.451357
30
0.0
0
VERTEX
100
AcDbVertex
100
AcDb2dVertex
8
Layer01
10
95.407003
20
78.278332
30
0.0
0
VERTEX
100
AcDbVertex
100
AcDb2dVertex
8
Layer01
10
94.874002
20
78.190212
30
0.0
0
VERTEX
100
AcDbVertex
100
AcDb2dVertex
8
Layer01
10
94.341001
20
78.101025
30
0.0
0
VERTEX
100
AcDbVertex
100
AcDb2dVertex
8
Layer01
10
93.807999
20
78.010768
30
0.0
0
VERTEX
100
AcDbVertex
100
AcDb2dVertex
8
Layer01
10
93.274998
20
77.919434
30
0.0
0
VERTEX
100
AcDbVertex
100
AcDb2dVertex
8
Layer01
10
92.741997
20
77.827019
30
0.0
0
VERTEX
100
AcDbVertex
100
AcDb2dVertex
8
Layer01
10
92.208996
20
77.733518
30
0.0
0
VERTEX
100
AcDbVertex
100
AcDb2dVertex
8
Layer01
10
91.675995
20
77.638925
30
0.0
0
VERTEX
100
AcDbVertex
100
AcDb2dVertex
8
Layer01
10
91.142994
20
77.543236
30
0.0
0
VERTEX
100
AcDbVertex
100
AcDb2dVertex
8
Layer01
10
90.077
20
77.348397
30
0.0
0
VERTEX
100
AcDbVertex
100
AcDb2dVertex
8
Layer01
10
89.543999
20
77.249247
30
0.0
0
VERTEX
100
AcDbVertex
100
AcDb2dVertex
8
Layer01
10
89.010998
20
77.149001
30
0.0
0
VERTEX
100
AcDbVertex
100
AcDb2dVertex
8
Layer01
10
88.477997
20
77.047663
30
0.0
0
VERTEX
100
AcDbVertex
100
AcDb2dVertex
8
Layer01
10
87.944996
20
76.945238
30
0.0
0
VERTEX
100
AcDbVertex
100
AcDb2dVertex
8
Layer01
10
87.411994
20
76.841725
30
0.0
0
VERTEX
100
AcDbVertex
100
AcDb2dVertex
8
Layer01
10
86.878993
20
76.737125
30
0.0
0
VERTEX
100
AcDbVertex
100
AcDb2dVertex
8
Layer01
10
86.345992
20
76.631432
30
0.0
0
VERTEX
100
AcDbVertex
100
AcDb2dVertex
8
Layer01
10
85.812991
20
76.524641
30
0.0
0
VERTEX
100
AcDbVertex
100
AcDb2dVertex
8
Layer01
10
84.746997
20
76.308378
30
0.0
0
VERTEX
100
AcDbVertex
100
AcDb2dVertex
8
Layer01
10
84.213996
20
76.198821
30
0.0
0
VERTEX
100
AcDbVertex
100
AcDb2dVertex
8
Layer01
10
83.680995
20
76.087999
30
0.0
0
VERTEX
100
AcDbVertex
100
AcDb2dVertex
8
Layer01
10
83.147994
20
75.975837
30
0.0
0
VERTEX
100
AcDbVertex
100
AcDb2dVertex
8
Layer01
10
82.614993
20
75.862264
30
0.0
0
VERTEX
100
AcDbVertex
100
AcDb2dVertex
8
Layer01
10
82.081992
20
75.747206
30
0.0
0
VERTEX
100
AcDbVertex
100
AcDb2dVertex
8
Layer01
10
81.548991
20
75.630596
30
0.0
0
VERTEX
100
AcDbVertex
100
AcDb2dVertex
8
Layer01
10
81.015989
20
75.512369
30
0.0
0
VERTEX
100
AcDbVertex
100
AcDb2dVertex
8
Layer01
10
80.482988
20
75.392468
30
0.0
0
VERTEX
100
AcDbVertex
100
AcDb2dVertex
8
Layer01
10
79.417002
20
75.146396
30
0.0
0
VERTEX
100
AcDbVertex
100
AcDb2dVertex
8
Layer01
10
78.884001
20
75.020231
30
0.0
0
VERTEX
100
AcDbVertex
100
AcDb2dVertex
8
Layer01
10
78.351
20
74.892411
30
0.0
0
VERTEX
100
AcDbVertex
100
AcDb2dVertex
8
Layer01
10
77.817999
20
74.763005
30
0.0
0
VERTEX
100
AcDbVertex
100
AcDb2dVertex
8
Layer01
10
77.284998
20
74.632084
30
0.0
0
VERTEX
100
AcDbVertex
100
AcDb2dVertex
8
Layer01
10
76.751997
20
74.499726
30
0.0
0
VERTEX
100
AcDbVertex
100
AcDb2dVertex
8
Layer01
10
76.218996
20
74.366012
30
0.0
0
VERTEX
100
AcDbVertex
100
AcDb2dVertex
8
Layer01
10
75.685995
20
74.231022
30
0.0
0
VERTEX
100
AcDbVertex
100
AcDb2dVertex
8
Layer01
10
75.152993
20
74.094836
30
0.0
0
VERTEX
100
AcDbVertex
100
AcDb2dVertex
8
Layer01
10
74.086999
20
73.819902
30
0.0
0
VERTEX
100
AcDbVertex
100
AcDb2dVertex
8
Layer01
10
73.553998
20
73.681238
30
0.0
0
VERTEX
100
AcDbVertex
100
AcDb2dVertex
8
Layer01
10
73.020997
20
73.541552
30
0.0
0
VERTEX
100
AcDbVertex
100
AcDb2dVertex
8
Layer01
10
72.487996
20
73.400847
30
0.0
0
VERTEX
100
AcDbVertex
100
AcDb2dVertex
8
Layer01
10
71.954995
20
73.259123
30
0.0
0
VERTEX
100
AcDbVertex
100
AcDb2dVertex
8
Layer01
10
71.421994
20
73.116375
30
0.0
0
VERTEX
100
AcDbVertex
100
AcDb2dVertex
8
Layer01
10
70.888993
20
72.972596
30
0.0
0
VERTEX
100
AcDbVertex
100
AcDb2dVertex
8
Layer01
10
70.355992
20
72.827775
30
0.0
0
VERTEX
100
AcDbVertex
100
AcDb2dVertex
8
Layer01
10
69.822991
20
72.681899
30
0.0
0
VERTEX
100
AcDbVertex
100
AcDb2dVertex
8
Layer01
10
68.756996
20
72.386752
30
0.0
0
VERTEX
100
AcDbVertex
100
AcDb2dVertex
8
Layer01
10
68.223995
20
72.237459
30
0.0
0
VERTEX
100
AcDbVertex
100
AcDb2dVertex
8
Layer01
10
67.690994
20
72.087073
30
0.0
0
VERTEX
100
AcDbVertex
100
AcDb2dVertex
8
Layer01
10
67.157993
20
71.935589
30
0.0
0
VERTEX
100
AcDbVertex
100
AcDb2dVertex
8
Layer01
10
66.624992
20
71.783
30
0.0
0
VERTEX
100
AcDbVertex
100
AcDb2dVertex
8
Layer01
10
66.091991
20
71.629301
30
0.0
0
VERTEX
100
AcDbVertex
100
AcDb2dVertex
8
Layer01
10
65.55899
20
71.474482
30
0.0
0
VERTEX
100
AcDbVertex
100
AcDb2dVertex
8
Layer01
10
65.025989
20
71.318536
30
0.0
0
VERTEX
100
AcDbVertex
100
AcDb2dVertex
8
Layer01
10
64.492988
20
71.161451
30
0.0
0
VERTEX
100
AcDbVertex
100
AcDb2dVertex
8
Layer01
10
63.426997
20
70.84388
30
0.0
0
VERTEX
100
AcDbVertex
100
AcDb2dVertex
8
Layer01
10
62.893996
20
70.683362
30
0.0
0
VERTEX
100
AcDbVertex
100
AcDb2dVertex
8
Layer01
10
62.360995
20
70.521648
30
0.0
0
VERTEX
100
AcDbVertex
100
AcDb2dVertex
8
Layer01
10
61.827994
20
70.358719
30
0.0
0
VERTEX
100
AcDbVertex
100
AcDb2dVertex
8
Layer01
10
61.294993
20
70.194558
30
0.0
0
VERTEX
100
AcDbVertex
100
AcDb2dVertex
8
Layer01
10
60.761992
20
70.029143
30
0.0
0
VERTEX
100
AcDbVertex
100
AcDb2dVertex
8
Layer01
10
60.228991
20
69.862455
30
0.0
0
VERTEX
100
AcDbVertex
100
AcDb2dVertex
8
Layer01
10
59.69599
20
69.694473
30
0.0
0
VERTEX
100
AcDbVertex
100
AcDb2dVertex
8
Layer01
10
59.162989
20
69.525175
30
0.0
0
VERTEX
100
AcDbVertex
100
AcDb2dVertex
8
Layer01
10
58.096999
20
69.182291
30
0.0
0
VERTEX
100
AcDbVertex
100
AcDb2dVertex
8
Layer01
10
57.563998
20
69.008679
30
0.0
0
VERTEX
100
AcDbVertex
100
AcDb2dVertex
8
Layer01
10
57.030996
20
68.833709
30
0.0
0
VERTEX
100
AcDbVertex
100
AcDb2dVertex
8
Layer01
10
56.497995
20
68.657379
30
0.0
0
VERTEX
100
AcDbVertex
100
AcDb2dVertex
8
Layer01
10
55.964994
20
68.479687
30
0.0
0
VERTEX
100
AcDbVertex
100
AcDb2dVertex
8
Layer01
10
55.431993
20
68.300625
30
0.0
0
VERTEX
100
AcDbVertex
100
AcDb2dVertex
8
Layer01
10
54.898992
20
68.120183
30
0.0
0
VERTEX
100
AcDbVertex
100
AcDb2dVertex
8
Layer01
10
54.365991
20
67.93835
30
0.0
0
VERTEX
100
AcDbVertex
100
AcDb2dVertex
8
Layer01
10
53.83299
20
67.755107
30
0.0
0
VERTEX
100
AcDbVertex
100
AcDb2dVertex
8
Layer01
10
52.767
20
67.384823
30
0.0
0
VERTEX
100
AcDbVertex
100
AcDb2dVertex
8
Layer01
10
52.233999
20
67.197673
30
0.0
0
VERTEX
100
AcDbVertex
100
AcDb2dVertex
8
Layer01
10
51.700998
20
67.008908
30
0.0
0
VERTEX
100
AcDbVertex
100
AcDb2dVertex
8
Layer01
10
51.167996
20
66.818441
30
0.0
0
VERTEX
100
AcDbVertex
100
AcDb2dVertex
8
Layer01
10
50.634995
20
66.626184
30
0.0
0
VERTEX
100
AcDbVertex
100
AcDb2dVertex
8
Layer01
10
50.101994
20
66.432045
30
0.0
0
VERTEX
100
AcDbVertex
100
AcDb2dVertex
8
Layer01
10
49.568993
20
66.235931
30
0.0
0
VERTEX
100
AcDbVertex
100
AcDb2dVertex
8
Layer01
10
49.035992
20
66.037746
30
0.0
0
VERTEX
100
AcDbVertex
100
AcDb2dVertex
8
Layer01
10
48.502991
20
65.837397
30
0.0
0
VERTEX
100
AcDbVertex
100
AcDb2dVertex
8
Layer01
10
47.437001
20
65.429423
30
0.0
0
VERTEX
100
AcDbVertex
100
AcDb2dVertex
8
Layer01
10
46.904
20
65.221643
30
0.0
0
VERTEX
100
AcDbVertex
100
AcDb2dVertex
8
Layer01
10
46.370999
20
65.011397
30
0.0
0
VERTEX
100
AcDbVertex
100
AcDb2dVertex
8
Layer01
10
45.837998
20
64.798629
30
0.0
0
VERTEX
100
AcDbVertex
100
AcDb2dVertex
8
Layer01
10
45.304997
20
64.583286
30
0.0
0
VERTEX
100
AcDbVertex
100
AcDb2dVertex
8
Layer01
10
44.771995
20
64.365317
30
0.0
0
VERTEX
100
AcDbVertex
100
AcDb2dVertex
8
Layer01
10
44.238994
20
64.144672
30
0.0
0
VERTEX
100
AcDbVertex
100
AcDb2dVertex
8
Layer01
10
43.705993
20
63.921299
30
0.0
0
VERTEX
100
AcDbVertex
100
AcDb2dVertex
8
Layer01
10
43.172992
20
63.695149
30
0.0
0
VERTEX
100
AcDbVertex
100
AcDb2dVertex
8
Layer01
10
42.106998
20
63.234392
30
0.0
0
VERTEX
100
AcDbVertex
100
AcDb2dVertex
8
Layer01
10
41.573997
20
62.999675
30
0.0
0
VERTEX
100
AcDbVertex
100
AcDb2dVertex
8
Layer01
10
41.040996
20
62.761966
30
0.0
0
VERTEX
100
AcDbVertex
100
AcDb2dVertex
8
Layer01
10
40.507995
20
62.521208
30
0.0
0
VERTEX
100
AcDbVertex
100
AcDb2dVertex
8
Layer01
10
39.974994
20
62.27734
30
0.0
0
VERTEX
100
AcDbVertex
100
AcDb2dVertex
8
Layer01
10
39.441993
20
62.030303
30
0.0
0
VERTEX
100
AcDbVertex
100
AcDb2dVertex
8
Layer01
10
38.908991
20
61.780035
30
0.0
0
VERTEX
100
AcDbVertex
100
AcDb2dVertex
8
Layer01
10
38.37599
20
61.526472
30
0.0
0
VERTEX
100
AcDbVertex
100
AcDb2dVertex
8
Layer01
10
37.842989
20
61.269549
30
0.0
0
VERTEX
100
AcDbVertex
100
AcDb2dVertex
8
Layer01
10
36.776999
20
60.745773
30
0.0
0
VERTEX
100
AcDbVertex
100
AcDb2dVertex
8
Layer01
10
36.243998
20
60.478746
30
0.0
0
VERTEX
100
AcDbVertex
100
AcDb2dVertex
8
Layer01
10
35.710997
20
60.208021
30
0.0
0
VERTEX
100
AcDbVertex
100
AcDb2dVertex
8
Layer01
10
35.177996
20
59.933498
30
0.0
0
VERTEX
100
AcDbVertex
100
AcDb2dVertex
8
Layer01
10
34.644995
20
59.655077
30
0.0
0
VERTEX
100
AcDbVertex
100
AcDb2dVertex
8
Layer01
10
34.111994
20
59.37266
30
0.0
0
VERTEX
100
AcDbVertex
100
AcDb2dVertex
8
Layer01
10
33.578993
20
59.086154
30
0.0
0
VERTEX
100
AcDbVertex
100
AcDb2dVertex
8
Layer01
10
33.045994
20
58.795472
30
0.0
0
VERTEX
100
AcDbVertex
100
AcDb2dVertex
8
Layer01
10
32.512994
20
58.50053
30
0.0
0
VERTEX
100
AcDbVertex
100
AcDb2dVertex
8
Layer01
10
31.447
20
57.896254
30
0.0
0
VERTEX
100
AcDbVertex
100
AcDb2dVertex
8
Layer01
10
30.914001
20
57.586893
30
0.0
0
VERTEX
100
AcDbVertex
100
AcDb2dVertex
8
Layer01
10
30.381002
20
57.27322
30
0.0
0
VERTEX
100
AcDbVertex
100
AcDb2dVertex
8
Layer01
10
29.848003
20
56.955288
30
0.0
0
VERTEX
100
AcDbVertex
100
AcDb2dVertex
8
Layer01
10
29.315004
20
56.633148
30
0.0
0
VERTEX
100
AcDbVertex
100
AcDb2dVertex
8
Layer01
10
28.782005
20
56.306852
30
0.0
0
VERTEX
100
AcDbVertex
100
AcDb2dVertex
8
Layer01
10
28.249006
20
55.976445
30
0.0
0
VERTEX
100
AcDbVertex
100
AcDb2dVertex
8
Layer01
10
27.716007
20
55.641966
30
0.0
0
VERTEX
100
AcDbVertex
100
AcDb2dVertex
8
Layer01
10
27.183007
20
55.303442
30
0.0
0
VERTEX
100
AcDbVertex
100
AcDb2dVertex
8
Layer01
10
26.650008
20
54.960887
30
0.0
0
VERTEX
100
AcDbVertex
100
AcDb2dVertex
8
Layer01
10
26.117001
20
54.615114
30
0.0
0
VERTEX
100
AcDbVertex
100
AcDb2dVertex
8
Layer01
10
25.584002
20
54.265197
30
0.0
0
VERTEX
100
AcDbVertex
100
AcDb2dVertex
8
Layer01
10
25.051003
20
53.911028
30
0.0
0
VERTEX
100
AcDbVertex
100
AcDb2dVertex
8
Layer01
10
24.518004
20
53.55249
30
0.0
0
VERTEX
100
AcDbVertex
100
AcDb2dVertex
8
Layer01
10
23.985005
20
53.189449
30
0.0
0
VERTEX
100
AcDbVertex
100
AcDb2dVertex
8
Layer01
10
23.452006
20
52.821761
30
0.0
0
VERTEX
100
AcDbVertex
100
AcDb2dVertex
8
Layer01
10
22.919007
20
52.449265
30
0.0
0
VERTEX
100
AcDbVertex
100
AcDb2dVertex
8
Layer01
10
22.386008
20
52.07179
30
0.0
0
VERTEX
100
AcDbVertex
100
AcDb2dVertex
8
Layer01
10
21.853009
20
51.689151
30
0.0
0
VERTEX
100
AcDbVertex
100
AcDb2dVertex
8
Layer01
10
21.320009
20
51.30115
30
0.0
0
VERTEX
100
AcDbVertex
100
AcDb2dVertex
8
Layer01
10
21.053499
20
51.104981
30
0.0
0
VERTEX
100
AcDbVertex
100
AcDb2dVertex
8
Layer01
10
20.786998
20
50.907416
30
0.0
0
VERTEX
100
AcDbVertex
100
AcDb2dVertex
8
Layer01
10
20.520498
20
50.708423
30
0.0
0
VERTEX
100
AcDbVertex
100
AcDb2dVertex
8
Layer01
10
20.253997
20
50.507975
30
0.0
0
VERTEX
100
AcDbVertex
100
AcDb2dVertex
8
Layer01
10
19.987497
20
50.306045
30
0.0
0
VERTEX
100
AcDbVertex
100
AcDb2dVertex
8
Layer01
10
19.720996
20
50.102603
30
0.0
0
VERTEX
100
AcDbVertex
100
AcDb2dVertex
8
Layer01
10
19.454496
20
49.897617
30
0.0
0
VERTEX
100
AcDbVertex
100
AcDb2dVertex
8
Layer01
10
19.187995
20
49.691057
30
0.0
0
VERTEX
100
AcDbVertex
100
AcDb2dVertex
8
Layer01
10
18.921495
20
49.482887
30
0.0
0
VERTEX
100
AcDbVertex
100
AcDb2dVertex
8
Layer01
10
18.3885
20
49.061052
30
0.0
0
VERTEX
100
AcDbVertex
100
AcDb2dVertex
8
Layer01
10
18.121999
20
48.847362
30
0.0
0
VERTEX
100
AcDbVertex
100
AcDb2dVertex
8
Layer01
10
17.855498
20
48.632001
30
0.0
0
VERTEX
100
AcDbVertex
100
AcDb2dVertex
8
Layer01
10
17.588998
20
48.414956
30
0.0
0
VERTEX
100
AcDbVertex
100
AcDb2dVertex
8
Layer01
10
17.322497
20
48.196208
30
0.0
0
VERTEX
100
AcDbVertex
100
AcDb2dVertex
8
Layer01
10
17.055997
20
47.975729
30
0.0
0
VERTEX
100
AcDbVertex
100
AcDb2dVertex
8
Layer01
10
16.789496
20
47.75348
30
0.0
0
VERTEX
100
AcDbVertex
100
AcDb2dVertex
8
Layer01
10
16.522997
20
47.529413
30
0.0
0
VERTEX
100
AcDbVertex
100
AcDb2dVertex
8
Layer01
10
16.256497
20
47.303468
30
0.0
0
VERTEX
100
AcDbVertex
100
AcDb2dVertex
8
Layer01
10
15.7235
20
46.847179
30
0.0
0
VERTEX
100
AcDbVertex
100
AcDb2dVertex
8
Layer01
10
15.457001
20
46.616526
30
0.0
0
VERTEX
100
AcDbVertex
100
AcDb2dVertex
8
Layer01
10
15.190501
20
46.383382
30
0.0
0
VERTEX
100
AcDbVertex
100
AcDb2dVertex
8
Layer01
10
14.924001
20
46.14751
30
0.0
0
VERTEX
100
AcDbVertex
100
AcDb2dVertex
8
Layer01
10
14.657502
20
45.908663
30
0.0
0
VERTEX
100
AcDbVertex
100
AcDb2dVertex
8
Layer01
10
14.391002
20
45.666598
30
0.0
0
VERTEX
100
AcDbVertex
100
AcDb2dVertex
8
Layer01
10
14.124503
20
45.421072
30
0.0
0
VERTEX
100
AcDbVertex
100
AcDb2dVertex
8
Layer01
10
13.858003
20
45.171847
30
0.0
0
VERTEX
100
AcDbVertex
100
AcDb2dVertex
8
Layer01
10
13.591504
20
44.918697
30
0.0
0
VERTEX
100
AcDbVertex
100
AcDb2dVertex
8
Layer01
10
13.325004
20
44.661407
30
0.0
0
VERTEX
100
AcDbVertex
100
AcDb2dVertex
8
Layer01
10
13.058501
20
44.39751
30
0.0
0
VERTEX
100
AcDbVertex
100
AcDb2dVertex
8
Layer01
10
12.792001
20
44.129271
30
0.0
0
VERTEX
100
AcDbVertex
100
AcDb2dVertex
8
Layer01
10
12.525502
20
43.856696
30
0.0
0
VERTEX
100
AcDbVertex
100
AcDb2dVertex
8
Layer01
10
12.259002
20
43.579808
30
0.0
0
VERTEX
100
AcDbVertex
100
AcDb2dVertex
8
Layer01
10
11.992502
20
43.298639
30
0.0
0
VERTEX
100
AcDbVertex
100
AcDb2dVertex
8
Layer01
10
11.726003
20
43.013228
30
0.0
0
VERTEX
100
AcDbVertex
100
AcDb2dVertex
8
Layer01
10
11.459503
20
42.723618
30
0.0
0
VERTEX
100
AcDbVertex
100
AcDb2dVertex
8
Layer01
10
11.193004
20
42.429853
30
0.0
0
VERTEX
100
AcDbVertex
100
AcDb2dVertex
8
Layer01
10
10.926504
20
42.131971
30
0.0
0
VERTEX
100
AcDbVertex
100
AcDb2dVertex
8
Layer01
10
10.660005
20
41.830005
30
0.0
0
VERTEX
100
AcDbVertex
100
AcDb2dVertex
8
Layer01
10
10.3935
20
41.525108
30
0.0
0
VERTEX
100
AcDbVertex
100
AcDb2dVertex
8
Layer01
10
10.127001
20
41.21608
30
0.0
0
VERTEX
100
AcDbVertex
100
AcDb2dVertex
8
Layer01
10
9.860501
20
40.902826
30
0.0
0
VERTEX
100
AcDbVertex
100
AcDb2dVertex
8
Layer01
10
9.594002
20
40.585245
30
0.0
0
VERTEX
100
AcDbVertex
100
AcDb2dVertex
8
Layer01
10
9.327502
20
40.263221
30
0.0
0
VERTEX
100
AcDbVertex
100
AcDb2dVertex
8
Layer01
10
9.061002
20
39.936626
30
0.0
0
VERTEX
100
AcDbVertex
100
AcDb2dVertex
8
Layer01
10
8.794503
20
39.605319
30
0.0
0
VERTEX
100
AcDbVertex
100
AcDb2dVertex
8
Layer01
10
8.528003
20
39.269147
30
0.0
0
VERTEX
100
AcDbVertex
100
AcDb2dVertex
8
Layer01
10
8.261503
20
38.927943
30
0.0
0
VERTEX
100
AcDbVertex
100
AcDb2dVertex
8
Layer01
10
7.995003
20
38.581529
30
0.0
0
VERTEX
100
AcDbVertex
100
AcDb2dVertex
8
Layer01
10
7.995001
20
38.581526
30
0.0
0
VERTEX
100
AcDbVertex
100
AcDb2dVertex
8
Layer01
10
7.707995
20
38.20166
30
0.0
0
VERTEX
100
AcDbVertex
100
AcDb2dVertex
8
Layer01
10
7.42578
20
37.821795
30
0.0
0
VERTEX
100
AcDbVertex
100
AcDb2dVertex
8
Layer01
10
7.14826
20
37.44193
30
0.0
0
VERTEX
100
AcDbVertex
100
AcDb2dVertex
8
Layer01
10
6.875342
20
37.062065
30
0.0
0
VERTEX
100
AcDbVertex
100
AcDb2dVertex
8
Layer01
10
6.606938
20
36.6822
30
0.0
0
VERTEX
100
AcDbVertex
100
AcDb2dVertex
8
Layer01
10
6.342966
20
36.302334
30
0.0
0
VERTEX
100
AcDbVertex
100
AcDb2dVertex
8
Layer01
10
6.08335
20
35.922469
30
0.0
0
VERTEX
100
AcDbVertex
100
AcDb2dVertex
8
Layer01
10
5.828021
20
35.542604
30
0.0
0
VERTEX
100
AcDbVertex
100
AcDb2dVertex
8
Layer01
10
5.576919
20
35.162739
30
0.0
0
VERTEX
100
AcDbVertex
100
AcDb2dVertex
8
Layer01
10
5.329999
20
34.782885
30
0.0
0
VERTEX
100
AcDbVertex
100
AcDb2dVertex
8
Layer01
10
5.035625
20
34.322453
30
0.0
0
VERTEX
100
AcDbVertex
100
AcDb2dVertex
8
Layer01
10
4.747259
20
33.862021
30
0.0
0
VERTEX
100
AcDbVertex
100
AcDb2dVertex
8
Layer01
10
4.464923
20
33.401589
30
0.0
0
VERTEX
100
AcDbVertex
100
AcDb2dVertex
8
Layer01
10
4.188667
20
32.941157
30
0.0
0
VERTEX
100
AcDbVertex
100
AcDb2dVertex
8
Layer01
10
3.918569
20
32.480725
30
0.0
0
VERTEX
100
AcDbVertex
100
AcDb2dVertex
8
Layer01
10
3.654731
20
32.020293
30
0.0
0
VERTEX
100
AcDbVertex
100
AcDb2dVertex
8
Layer01
10
3.397284
20
31.559861
30
0.0
0
VERTEX
100
AcDbVertex
100
AcDb2dVertex
8
Layer01
10
3.146387
20
31.099428
30
0.0
0
VERTEX
100
AcDbVertex
100
AcDb2dVertex
8
Layer01
10
2.902221
20
30.638996
30
0.0
0
VERTEX
100
AcDbVertex
100
AcDb2dVertex
8
Layer01
10
2.665
20
30.178566
30
0.0
0
VERTEX
100
AcDbVertex
100
AcDb2dVertex
8
Layer01
10
2.274833
20
29.374424
30
0.0
0
VERTEX
100
AcDbVertex
100
AcDb2dVertex
8
Layer01
10
1.908295
20
28.570282
30
0.0
0
VERTEX
100
AcDbVertex
100
AcDb2dVertex
8
Layer01
10
1.566115
20
27.76614
30
0.0
0
VERTEX
100
AcDbVertex
100
AcDb2dVertex
8
Layer01
10
1.249321
20
26.961999
30
0.0
0
VERTEX
100
AcDbVertex
100
AcDb2dVertex
8
Layer01
10
0.959327
20
26.157857
30
0.0
0
VERTEX
100
AcDbVertex
100
AcDb2dVertex
8
Layer01
10
0.698034
20
25.353715
30
0.0
0
VERTEX
100
AcDbVertex
100
AcDb2dVertex
8
Layer01
10
0.467917
20
24.549573
30
0.0
0
VERTEX
100
AcDbVertex
100
AcDb2dVertex
8
Layer01
10
0.272122
20
23.745431
30
0.0
0
VERTEX
100
AcDbVertex
100
AcDb2dVertex
8
Layer01
10
0.114561
20
22.941289
30
0.0
0
VERTEX
100
AcDbVertex
100
AcDb2dVertex
8
Layer01
10
0.000001
20
22.137147
30
0.0
0
VERTEX
100
AcDbVertex
100
AcDb2dVertex
8
Layer01
10
0.0
20
22.137143
30
0.0
0
VERTEX
100
AcDbVertex
100
AcDb2dVertex
8
Layer01
10
-0.028202
20
21.876601
30
0.0
0
VERTEX
100
AcDbVertex
100
AcDb2dVertex
8
Layer01
10
-0.05084
20
21.616059
30
0.0
0
VERTEX
100
AcDbVertex
100
AcDb2dVertex
8
Layer01
10
-0.067665
20
21.355518
30
0.0
0
VERTEX
100
AcDbVertex
100
AcDb2dVertex
8
Layer01
10
-0.078421
20
21.094976
30
0.0
0
VERTEX
100
AcDbVertex
100
AcDb2dVertex
8
Layer01
10
-0.08284
20
20.834434
30
0.0
0
VERTEX
100
AcDbVertex
100
AcDb2dVertex
8
Layer01
10
-0.080649
20
20.573892
30
0.0
0
VERTEX
100
AcDbVertex
100
AcDb2dVertex
8
Layer01
10
-0.071565
20
20.31335
30
0.0
0
VERTEX
100
AcDbVertex
100
AcDb2dVertex
8
Layer01
10
-0.055296
20
20.052808
30
0.0
0
VERTEX
100
AcDbVertex
100
AcDb2dVertex
8
Layer01
10
-0.031544
20
19.792267
30
0.0
0
VERTEX
100
AcDbVertex
100
AcDb2dVertex
8
Layer01
10
0.0
20
19.531731
30
0.0
0
VERTEX
100
AcDbVertex
100
AcDb2dVertex
8
Layer01
10
0.094307
20
19.025142
30
0.0
0
VERTEX
100
AcDbVertex
100
AcDb2dVertex
8
Layer01
10
0.221656
20
18.518553
30
0.0
0
VERTEX
100
AcDbVertex
100
AcDb2dVertex
8
Layer01
10
0.383353
20
18.011964
30
0.0
0
VERTEX
100
AcDbVertex
100
AcDb2dVertex
8
Layer01
10
0.580994
20
17.505375
30
0.0
0
VERTEX
100
AcDbVertex
100
AcDb2dVertex
8
Layer01
10
0.816532
20
16.998786
30
0.0
0
VERTEX
100
AcDbVertex
100
AcDb2dVertex
8
Layer01
10
1.092349
20
16.492196
30
0.0
0
VERTEX
100
AcDbVertex
100
AcDb2dVertex
8
Layer01
10
1.411326
20
15.985607
30
0.0
0
VERTEX
100
AcDbVertex
100
AcDb2dVertex
8
Layer01
10
1.776915
20
15.479017
30
0.0
0
VERTEX
100
AcDbVertex
100
AcDb2dVertex
8
Layer01
10
2.193205
20
14.972427
30
0.0
0
VERTEX
100
AcDbVertex
100
AcDb2dVertex
8
Layer01
10
2.664996
20
14.465837
30
0.0
0
VERTEX
100
AcDbVertex
100
AcDb2dVertex
8
Layer01
10
2.665
20
14.465833
30
0.0
0
VERTEX
100
AcDbVertex
100
AcDb2dVertex
8
Layer01
10
2.864189
20
14.257057
30
0.0
0
VERTEX
100
AcDbVertex
100
AcDb2dVertex
8
Layer01
10
3.077005
20
14.048281
30
0.0
0
VERTEX
100
AcDbVertex
100
AcDb2dVertex
8
Layer01
10
3.304097
20
13.839506
30
0.0
0
VERTEX
100
AcDbVertex
100
AcDb2dVertex
8
Layer01
10
3.546042
20
13.63073
30
0.0
0
VERTEX
100
AcDbVertex
100
AcDb2dVertex
8
Layer01
10
3.803331
20
13.421954
30
0.0
0
VERTEX
100
AcDbVertex
100
AcDb2dVertex
8
Layer01
10
4.076363
20
13.213178
30
0.0
0
VERTEX
100
AcDbVertex
100
AcDb2dVertex
8
Layer01
10
4.365431
20
13.004403
30
0.0
0
VERTEX
100
AcDbVertex
100
AcDb2dVertex
8
Layer01
10
4.670713
20
12.795627
30
0.0
0
VERTEX
100
AcDbVertex
100
AcDb2dVertex
8
Layer01
10
4.992262
20
12.586851
30
0.0
0
VERTEX
100
AcDbVertex
100
AcDb2dVertex
8
Layer01
10
5.329995
20
12.378075
30
0.0
0
VERTEX
100
AcDbVertex
100
AcDb2dVertex
8
Layer01
10
5.33
20
12.378072
30
0.0
0
VERTEX
100
AcDbVertex
100
AcDb2dVertex
8
Layer01
10
5.567314
20
12.237254
30
0.0
0
VERTEX
100
AcDbVertex
100
AcDb2dVertex
8
Layer01
10
5.811691
20
12.096436
30
0.0
0
VERTEX
100
AcDbVertex
100
AcDb2dVertex
8
Layer01
10
6.062971
20
11.955617
30
0.0
0
VERTEX
100
AcDbVertex
100
AcDb2dVertex
8
Layer01
10
6.320962
20
11.814799
30
0.0
0
VERTEX
100
AcDbVertex
100
AcDb2dVertex
8
Layer01
10
6.585443
20
11.673981
30
0.0
0
VERTEX
100
AcDbVertex
100
AcDb2dVertex
8
Layer01
10
6.856156
20
11.533162
30
0.0
0
VERTEX
100
AcDbVertex
100
AcDb2dVertex
8
Layer01
10
7.132812
20
11.392344
30
0.0
0
VERTEX
100
AcDbVertex
100
AcDb2dVertex
8
Layer01
10
7.415084
20
11.251526
30
0.0
0
VERTEX
100
AcDbVertex
100
AcDb2dVertex
8
Layer01
10
7.702611
20
11.110707
30
0.0
0
VERTEX
100
AcDbVertex
100
AcDb2dVertex
8
Layer01
10
7.994994
20
10.969889
30
0.0
0
VERTEX
100
AcDbVertex
100
AcDb2dVertex
8
Layer01
10
7.995
20
10.969886
30
0.0
0
VERTEX
100
AcDbVertex
100
AcDb2dVertex
8
Layer01
10
8.254528
20
10.847648
30
0.0
0
VERTEX
100
AcDbVertex
100
AcDb2dVertex
8
Layer01
10
8.516827
20
10.72541
30
0.0
0
VERTEX
100
AcDbVertex
100
AcDb2dVertex
8
Layer01
10
8.781445
20
10.603171
30
0.0
0
VERTEX
100
AcDbVertex
100
AcDb2dVertex
8
Layer01
10
9.047923
20
10.480933
30
0.0
0
VERTEX
100
AcDbVertex
100
AcDb2dVertex
8
Layer01
10
9.315798
20
10.358695
30
0.0
0
VERTEX
100
AcDbVertex
100
AcDb2dVertex
8
Layer01
10
9.584603
20
10.236457
30
0.0
0
VERTEX
100
AcDbVertex
100
AcDb2dVertex
8
Layer01
10
9.853878
20
10.114218
30
0.0
0
VERTEX
100
AcDbVertex
100
AcDb2dVertex
8
Layer01
10
10.123165
20
9.99198
30
0.0
0
VERTEX
100
AcDbVertex
100
AcDb2dVertex
8
Layer01
10
10.392017
20
9.869742
30
0.0
0
VERTEX
100
AcDbVertex
100
AcDb2dVertex
8
Layer01
10
10.660001
20
9.747504
30
0.0
0
VERTEX
100
AcDbVertex
100
AcDb2dVertex
8
Layer01
10
10.926499
20
9.628083
30
0.0
0
VERTEX
100
AcDbVertex
100
AcDb2dVertex
8
Layer01
10
11.192999
20
9.50761
30
0.0
0
VERTEX
100
AcDbVertex
100
AcDb2dVertex
8
Layer01
10
11.459498
20
9.385702
30
0.0
0
VERTEX
100
AcDbVertex
100
AcDb2dVertex
8
Layer01
10
11.725998
20
9.261999
30
0.0
0
VERTEX
100
AcDbVertex
100
AcDb2dVertex
8
Layer01
10
11.992497
20
9.136175
30
0.0
0
VERTEX
100
AcDbVertex
100
AcDb2dVertex
8
Layer01
10
12.258997
20
9.007947
30
0.0
0
VERTEX
100
AcDbVertex
100
AcDb2dVertex
8
Layer01
10
12.525497
20
8.877081
30
0.0
0
VERTEX
100
AcDbVertex
100
AcDb2dVertex
8
Layer01
10
12.791996
20
8.743401
30
0.0
0
VERTEX
100
AcDbVertex
100
AcDb2dVertex
8
Layer01
10
13.058496
20
8.606799
30
0.0
0
VERTEX
100
AcDbVertex
100
AcDb2dVertex
8
Layer01
10
13.324995
20
8.467241
30
0.0
0
VERTEX
100
AcDbVertex
100
AcDb2dVertex
8
Layer01
10
13.5915
20
8.31566
30
0.0
0
VERTEX
100
AcDbVertex
100
AcDb2dVertex
8
Layer01
10
13.857999
20
8.162002
30
0.0
0
VERTEX
100
AcDbVertex
100
AcDb2dVertex
8
Layer01
10
14.124499
20
8.007162
30
0.0
0
VERTEX
100
AcDbVertex
100
AcDb2dVertex
8
Layer01
10
14.390998
20
7.85209
30
0.0
0
VERTEX
100
AcDbVertex
100
AcDb2dVertex
8
Layer01
10
14.657498
20
7.69777
30
0.0
0
VERTEX
100
AcDbVertex
100
AcDb2dVertex
8
Layer01
10
14.923997
20
7.545202
30
0.0
0
VERTEX
100
AcDbVertex
100
AcDb2dVertex
8
Layer01
10
15.190497
20
7.395377
30
0.0
0
VERTEX
100
AcDbVertex
100
AcDb2dVertex
8
Layer01
10
15.456997
20
7.249264
30
0.0
0
VERTEX
100
AcDbVertex
100
AcDb2dVertex
8
Layer01
10
15.723496
20
7.107785
30
0.0
0
VERTEX
100
AcDbVertex
100
AcDb2dVertex
8
Layer01
10
15.989996
20
6.971802
30
0.0
0
VERTEX
100
AcDbVertex
100
AcDb2dVertex
8
Layer01
10
16.256499
20
6.851599
30
0.0
0
VERTEX
100
AcDbVertex
100
AcDb2dVertex
8
Layer01
10
16.522999
20
6.737629
30
0.0
0
VERTEX
100
AcDbVertex
100
AcDb2dVertex
8
Layer01
10
16.789498
20
6.629757
30
0.0
0
VERTEX
100
AcDbVertex
100
AcDb2dVertex
8
Layer01
10
17.055999
20
6.527766
30
0.0
0
VERTEX
100
AcDbVertex
100
AcDb2dVertex
8
Layer01
10
17.322499
20
6.431365
30
0.0
0
VERTEX
100
AcDbVertex
100
AcDb2dVertex
8
Layer01
10
17.589
20
6.3402
30
0.0
0
VERTEX
100
AcDbVertex
100
AcDb2dVertex
8
Layer01
10
17.8555
20
6.25386
30
0.0
0
VERTEX
100
AcDbVertex
100
AcDb2dVertex
8
Layer01
10
18.122001
20
6.171889
30
0.0
0
VERTEX
100
AcDbVertex
100
AcDb2dVertex
8
Layer01
10
18.388502
20
6.093796
30
0.0
0
VERTEX
100
AcDbVertex
100
AcDb2dVertex
8
Layer01
10
18.921501
20
5.942236
30
0.0
0
VERTEX
100
AcDbVertex
100
AcDb2dVertex
8
Layer01
10
19.188001
20
5.867879
30
0.0
0
VERTEX
100
AcDbVertex
100
AcDb2dVertex
8
Layer01
10
19.454502
20
5.795812
30
0.0
0
VERTEX
100
AcDbVertex
100
AcDb2dVertex
8
Layer01
10
19.721002
20
5.725865
30
0.0
0
VERTEX
100
AcDbVertex
100
AcDb2dVertex
8
Layer01
10
19.987503
20
5.657878
30
0.0
0
VERTEX
100
AcDbVertex
100
AcDb2dVertex
8
Layer01
10
20.254003
20
5.591706
30
0.0
0
VERTEX
100
AcDbVertex
100
AcDb2dVertex
8
Layer01
10
20.520504
20
5.527212
30
0.0
0
VERTEX
100
AcDbVertex
100
AcDb2dVertex
8
Layer01
10
20.787004
20
5.464268
30
0.0
0
VERTEX
100
AcDbVertex
100
AcDb2dVertex
8
Layer01
10
21.053505
20
5.402759
30
0.0
0
VERTEX
100
AcDbVertex
100
AcDb2dVertex
8
Layer01
10
21.852999
20
5.224828
30
0.0
0
VERTEX
100
AcDbVertex
100
AcDb2dVertex
8
Layer01
10
22.385998
20
5.111198
30
0.0
0
VERTEX
100
AcDbVertex
100
AcDb2dVertex
8
Layer01
10
22.918997
20
5.001298
30
0.0
0
VERTEX
100
AcDbVertex
100
AcDb2dVertex
8
Layer01
10
23.451996
20
4.894874
30
0.0
0
VERTEX
100
AcDbVertex
100
AcDb2dVertex
8
Layer01
10
23.984995
20
4.791792
30
0.0
0
VERTEX
100
AcDbVertex
100
AcDb2dVertex
8
Layer01
10
24.517994
20
4.692016
30
0.0
0
VERTEX
100
AcDbVertex
100
AcDb2dVertex
8
Layer01
10
25.050993
20
4.595588
30
0.0
0
VERTEX
100
AcDbVertex
100
AcDb2dVertex
8
Layer01
10
25.583992
20
4.502611
30
0.0
0
VERTEX
100
AcDbVertex
100
AcDb2dVertex
8
Layer01
10
26.116991
20
4.413224
30
0.0
0
VERTEX
100
AcDbVertex
100
AcDb2dVertex
8
Layer01
10
26.64999
20
4.327588
30
0.0
0
VERTEX
100
AcDbVertex
100
AcDb2dVertex
8
Layer01
10
27.182999
20
4.253619
30
0.0
0
VERTEX
100
AcDbVertex
100
AcDb2dVertex
8
Layer01
10
27.715999
20
4.183327
30
0.0
0
VERTEX
100
AcDbVertex
100
AcDb2dVertex
8
Layer01
10
28.248998
20
4.116181
30
0.0
0
VERTEX
100
AcDbVertex
100
AcDb2dVertex
8
Layer01
10
28.781997
20
4.051622
30
0.0
0
VERTEX
100
AcDbVertex
100
AcDb2dVertex
8
Layer01
10
29.314996
20
3.989074
30
0.0
0
VERTEX
100
AcDbVertex
100
AcDb2dVertex
8
Layer01
10
29.847995
20
3.927949
30
0.0
0
VERTEX
100
AcDbVertex
100
AcDb2dVertex
8
Layer01
10
30.380994
20
3.867667
30
0.0
0
VERTEX
100
AcDbVertex
100
AcDb2dVertex
8
Layer01
10
30.913993
20
3.80766
30
0.0
0
VERTEX
100
AcDbVertex
100
AcDb2dVertex
8
Layer01
10
31.446992
20
3.747384
30
0.0
0
VERTEX
100
AcDbVertex
100
AcDb2dVertex
8
Layer01
10
31.979991
20
3.686336
30
0.0
0
VERTEX
100
AcDbVertex
100
AcDb2dVertex
8
Layer01
10
32.512998
20
3.618214
30
0.0
0
VERTEX
100
AcDbVertex
100
AcDb2dVertex
8
Layer01
10
33.045997
20
3.548901
30
0.0
0
VERTEX
100
AcDbVertex
100
AcDb2dVertex
8
Layer01
10
33.578997
20
3.478487
30
0.0
0
VERTEX
100
AcDbVertex
100
AcDb2dVertex
8
Layer01
10
34.111998
20
3.407106
30
0.0
0
VERTEX
100
AcDbVertex
100
AcDb2dVertex
8
Layer01
10
34.644999
20
3.334934
30
0.0
0
VERTEX
100
AcDbVertex
100
AcDb2dVertex
8
Layer01
10
35.178
20
3.262177
30
0.0
0
VERTEX
100
AcDbVertex
100
AcDb2dVertex
8
Layer01
10
35.711001
20
3.189065
30
0.0
0
VERTEX
100
AcDbVertex
100
AcDb2dVertex
8
Layer01
10
36.244002
20
3.115847
30
0.0
0
VERTEX
100
AcDbVertex
100
AcDb2dVertex
8
Layer01
10
36.777003
20
3.042785
30
0.0
0
VERTEX
100
AcDbVertex
100
AcDb2dVertex
8
Layer01
10
37.843001
20
2.900227
30
0.0
0
VERTEX
100
AcDbVertex
100
AcDb2dVertex
8
Layer01
10
38.376002
20
2.831095
30
0.0
0
VERTEX
100
AcDbVertex
100
AcDb2dVertex
8
Layer01
10
38.909003
20
2.762839
30
0.0
0
VERTEX
100
AcDbVertex
100
AcDb2dVertex
8
Layer01
10
39.442004
20
2.69554
30
0.0
0
VERTEX
100
AcDbVertex
100
AcDb2dVertex
8
Layer01
10
39.975006
20
2.62927
30
0.0
0
VERTEX
100
AcDbVertex
100
AcDb2dVertex
8
Layer01
10
40.508007
20
2.56409
30
0.0
0
VERTEX
100
AcDbVertex
100
AcDb2dVertex
8
Layer01
10
41.041008
20
2.50005
30
0.0
0
VERTEX
100
AcDbVertex
100
AcDb2dVertex
8
Layer01
10
41.574009
20
2.437188
30
0.0
0
VERTEX
100
AcDbVertex
100
AcDb2dVertex
8
Layer01
10
42.10701
20
2.375528
30
0.0
0
VERTEX
100
AcDbVertex
100
AcDb2dVertex
8
Layer01
10
43.173
20
2.257186
30
0.0
0
VERTEX
100
AcDbVertex
100
AcDb2dVertex
8
Layer01
10
43.706001
20
2.200388
30
0.0
0
VERTEX
100
AcDbVertex
100
AcDb2dVertex
8
Layer01
10
44.239002
20
2.144566
30
0.0
0
VERTEX
100
AcDbVertex
100
AcDb2dVertex
8
Layer01
10
44.772003
20
2.089591
30
0.0
0
VERTEX
100
AcDbVertex
100
AcDb2dVertex
8
Layer01
10
45.305004
20
2.035327
30
0.0
0
VERTEX
100
AcDbVertex
100
AcDb2dVertex
8
Layer01
10
45.838006
20
1.981641
30
0.0
0
VERTEX
100
AcDbVertex
100
AcDb2dVertex
8
Layer01
10
46.371007
20
1.928402
30
0.0
0
VERTEX
100
AcDbVertex
100
AcDb2dVertex
8
Layer01
10
46.904008
20
1.875487
30
0.0
0
VERTEX
100
AcDbVertex
100
AcDb2dVertex
8
Layer01
10
47.437009
20
1.822786
30
0.0
0
VERTEX
100
AcDbVertex
100
AcDb2dVertex
8
Layer01
10
48.503003
20
1.715189
30
0.0
0
VERTEX
100
AcDbVertex
100
AcDb2dVertex
8
Layer01
10
49.036004
20
1.66034
30
0.0
0
VERTEX
100
AcDbVertex
100
AcDb2dVertex
8
Layer01
10
49.569005
20
1.605799
30
0.0
0
VERTEX
100
AcDbVertex
100
AcDb2dVertex
8
Layer01
10
50.102006
20
1.551722
30
0.0
0
VERTEX
100
AcDbVertex
100
AcDb2dVertex
8
Layer01
10
50.635007
20
1.498277
30
0.0
0
VERTEX
100
AcDbVertex
100
AcDb2dVertex
8
Layer01
10
51.168008
20
1.445638
30
0.0
0
VERTEX
100
AcDbVertex
100
AcDb2dVertex
8
Layer01
10
51.701009
20
1.393979
30
0.0
0
VERTEX
100
AcDbVertex
100
AcDb2dVertex
8
Layer01
10
52.234011
20
1.343473
30
0.0
0
VERTEX
100
AcDbVertex
100
AcDb2dVertex
8
Layer01
10
52.767012
20
1.294288
30
0.0
0
VERTEX
100
AcDbVertex
100
AcDb2dVertex
8
Layer01
10
53.833002
20
1.202529
30
0.0
0
VERTEX
100
AcDbVertex
100
AcDb2dVertex
8
Layer01
10
54.366003
20
1.160069
30
0.0
0
VERTEX
100
AcDbVertex
100
AcDb2dVertex
8
Layer01
10
54.899004
20
1.119155
30
0.0
0
VERTEX
100
AcDbVertex
100
AcDb2dVertex
8
Layer01
10
55.432005
20
1.079729
30
0.0
0
VERTEX
100
AcDbVertex
100
AcDb2dVertex
8
Layer01
10
55.965006
20
1.041723
30
0.0
0
VERTEX
100
AcDbVertex
100
AcDb2dVertex
8
Layer01
10
56.498007
20
1.005059
30
0.0
0
VERTEX
100
AcDbVertex
100
AcDb2dVertex
8
Layer01
10
57.031008
20
0.969651
30
0.0
0
VERTEX
100
AcDbVertex
100
AcDb2dVertex
8
Layer01
10
57.564009
20
0.935411
30
0.0
0
VERTEX
100
AcDbVertex
100
AcDb2dVertex
8
Layer01
10
58.097011
20
0.902248
30
0.0
0
VERTEX
100
AcDbVertex
100
AcDb2dVertex
8
Layer01
10
59.163001
20
0.837882
30
0.0
0
VERTEX
100
AcDbVertex
100
AcDb2dVertex
8
Layer01
10
59.696002
20
0.806573
30
0.0
0
VERTEX
100
AcDbVertex
100
AcDb2dVertex
8
Layer01
10
60.229003
20
0.776131
30
0.0
0
VERTEX
100
AcDbVertex
100
AcDb2dVertex
8
Layer01
10
60.762004
20
0.746546
30
0.0
0
VERTEX
100
AcDbVertex
100
AcDb2dVertex
8
Layer01
10
61.295005
20
0.717811
30
0.0
0
VERTEX
100
AcDbVertex
100
AcDb2dVertex
8
Layer01
10
61.828006
20
0.689924
30
0.0
0
VERTEX
100
AcDbVertex
100
AcDb2dVertex
8
Layer01
10
62.361007
20
0.662882
30
0.0
0
VERTEX
100
AcDbVertex
100
AcDb2dVertex
8
Layer01
10
62.894008
20
0.636685
30
0.0
0
VERTEX
100
AcDbVertex
100
AcDb2dVertex
8
Layer01
10
63.427009
20
0.611335
30
0.0
0
VERTEX
100
AcDbVertex
100
AcDb2dVertex
8
Layer01
10
64.493
20
0.563348
30
0.0
0
VERTEX
100
AcDbVertex
100
AcDb2dVertex
8
Layer01
10
65.026001
20
0.5407
30
0.0
0
VERTEX
100
AcDbVertex
100
AcDb2dVertex
8
Layer01
10
65.559002
20
0.518878
30
0.0
0
VERTEX
100
AcDbVertex
100
AcDb2dVertex
8
Layer01
10
66.092003
20
0.497869
30
0.0
0
VERTEX
100
AcDbVertex
100
AcDb2dVertex
8
Layer01
10
66.625
20
0.47766
30
0.0
0
VERTEX
100
AcDbVertex
100
AcDb2dVertex
8
Layer01
10
67.158001
20
0.458238
30
0.0
0
VERTEX
100
AcDbVertex
100
AcDb2dVertex
8
Layer01
10
67.691002
20
0.439588
30
0.0
0
VERTEX
100
AcDbVertex
100
AcDb2dVertex
8
Layer01
10
68.224003
20
0.421696
30
0.0
0
VERTEX
100
AcDbVertex
100
AcDb2dVertex
8
Layer01
10
68.757004
20
0.404549
30
0.0
0
VERTEX
100
AcDbVertex
100
AcDb2dVertex
8
Layer01
10
69.822999
20
0.3723
30
0.0
0
VERTEX
100
AcDbVertex
100
AcDb2dVertex
8
Layer01
10
70.356
20
0.357178
30
0.0
0
VERTEX
100
AcDbVertex
100
AcDb2dVertex
8
Layer01
10
70.889001
20
0.342756
30
0.0
0
VERTEX
100
AcDbVertex
100
AcDb2dVertex
8
Layer01
10
71.422002
20
0.329027
30
0.0
0
VERTEX
100
AcDbVertex
100
AcDb2dVertex
8
Layer01
10
71.955003
20
0.315981
30
0.0
0
VERTEX
100
AcDbVertex
100
AcDb2dVertex
8
Layer01
10
72.488004
20
0.303608
30
0.0
0
VERTEX
100
AcDbVertex
100
AcDb2dVertex
8
Layer01
10
73.021005
20
0.291894
30
0.0
0
VERTEX
100
AcDbVertex
100
AcDb2dVertex
8
Layer01
10
73.554006
20
0.280822
30
0.0
0
VERTEX
100
AcDbVertex
100
AcDb2dVertex
8
Layer01
10
74.087007
20
0.270375
30
0.0
0
VERTEX
100
AcDbVertex
100
AcDb2dVertex
8
Layer01
10
75.153001
20
0.25179
30
0.0
0
VERTEX
100
AcDbVertex
100
AcDb2dVertex
8
Layer01
10
75.686002
20
0.243556
30
0.0
0
VERTEX
100
AcDbVertex
100
AcDb2dVertex
8
Layer01
10
76.219004
20
0.235757
30
0.0
0
VERTEX
100
AcDbVertex
100
AcDb2dVertex
8
Layer01
10
76.752005
20
0.228319
30
0.0
0
VERTEX
100
AcDbVertex
100
AcDb2dVertex
8
Layer01
10
77.285006
20
0.221167
30
0.0
0
VERTEX
100
AcDbVertex
100
AcDb2dVertex
8
Layer01
10
77.818007
20
0.214228
30
0.0
0
VERTEX
100
AcDbVertex
100
AcDb2dVertex
8
Layer01
10
78.351008
20
0.207432
30
0.0
0
VERTEX
100
AcDbVertex
100
AcDb2dVertex
8
Layer01
10
78.884009
20
0.20071
30
0.0
0
VERTEX
100
AcDbVertex
100
AcDb2dVertex
8
Layer01
10
79.41701
20
0.193999
30
0.0
0
VERTEX
100
AcDbVertex
100
AcDb2dVertex
8
Layer01
10
80.483004
20
0.179605
30
0.0
0
VERTEX
100
AcDbVertex
100
AcDb2dVertex
8
Layer01
10
81.016005
20
0.171888
30
0.0
0
VERTEX
100
AcDbVertex
100
AcDb2dVertex
8
Layer01
10
81.549006
20
0.164117
30
0.0
0
VERTEX
100
AcDbVertex
100
AcDb2dVertex
8
Layer01
10
82.082007
20
0.156323
30
0.0
0
VERTEX
100
AcDbVertex
100
AcDb2dVertex
8
Layer01
10
82.615009
20
0.14854
30
0.0
0
VERTEX
100
AcDbVertex
100
AcDb2dVertex
8
Layer01
10
83.14801
20
0.140808
30
0.0
0
VERTEX
100
AcDbVertex
100
AcDb2dVertex
8
Layer01
10
83.681011
20
0.133169
30
0.0
0
VERTEX
100
AcDbVertex
100
AcDb2dVertex
8
Layer01
10
84.214012
20
0.125665
30
0.0
0
VERTEX
100
AcDbVertex
100
AcDb2dVertex
8
Layer01
10
84.747013
20
0.11834
30
0.0
0
VERTEX
100
AcDbVertex
100
AcDb2dVertex
8
Layer01
10
85.812999
20
0.104885
30
0.0
0
VERTEX
100
AcDbVertex
100
AcDb2dVertex
8
Layer01
10
86.346
20
0.098795
30
0.0
0
VERTEX
100
AcDbVertex
100
AcDb2dVertex
8
Layer01
10
86.879001
20
0.092965
30
0.0
0
VERTEX
100
AcDbVertex
100
AcDb2dVertex
8
Layer01
10
87.412002
20
0.08739
30
0.0
0
VERTEX
100
AcDbVertex
100
AcDb2dVertex
8
Layer01
10
87.945003
20
0.082063
30
0.0
0
VERTEX
100
AcDbVertex
100
AcDb2dVertex
8
Layer01
10
88.478005
20
0.076975
30
0.0
0
VERTEX
100
AcDbVertex
100
AcDb2dVertex
8
Layer01
10
89.011006
20
0.072116
30
0.0
0
VERTEX
100
AcDbVertex
100
AcDb2dVertex
8
Layer01
10
89.544007
20
0.067474
30
0.0
0
VERTEX
100
AcDbVertex
100
AcDb2dVertex
8
Layer01
10
90.077008
20
0.063036
30
0.0
0
VERTEX
100
AcDbVertex
100
AcDb2dVertex
8
Layer01
10
91.143002
20
0.054612
30
0.0
0
VERTEX
100
AcDbVertex
100
AcDb2dVertex
8
Layer01
10
91.676003
20
0.050607
30
0.0
0
VERTEX
100
AcDbVertex
100
AcDb2dVertex
8
Layer01
10
92.209004
20
0.046772
30
0.0
0
VERTEX
100
AcDbVertex
100
AcDb2dVertex
8
Layer01
10
92.742005
20
0.043101
30
0.0
0
VERTEX
100
AcDbVertex
100
AcDb2dVertex
8
Layer01
10
93.275006
20
0.03959
30
0.0
0
VERTEX
100
AcDbVertex
100
AcDb2dVertex
8
Layer01
10
93.808007
20
0.036236
30
0.0
0
VERTEX
100
AcDbVertex
100
AcDb2dVertex
8
Layer01
10
94.341009
20
0.033034
30
0.0
0
VERTEX
100
AcDbVertex
100
AcDb2dVertex
8
Layer01
10
94.87401
20
0.029981
30
0.0
0
VERTEX
100
AcDbVertex
100
AcDb2dVertex
8
Layer01
10
95.407011
20
0.027072
30
0.0
0
VERTEX
100
AcDbVertex
100
AcDb2dVertex
8
Layer01
10
96.473005
20
0.021726
30
0.0
0
VERTEX
100
AcDbVertex
100
AcDb2dVertex
8
Layer01
10
97.006006
20
0.019279
30
0.0
0
VERTEX
100
AcDbVertex
100
AcDb2dVertex
8
Layer01
10
97.539007
20
0.016955
30
0.0
0
VERTEX
100
AcDbVertex
100
AcDb2dVertex
8
Layer01
10
98.072008
20
0.014749
30
0.0
0
VERTEX
100
AcDbVertex
100
AcDb2dVertex
8
Layer01
10
98.605009
20
0.012656
30
0.0
0
VERTEX
100
AcDbVertex
100
AcDb2dVertex
8
Layer01
10
99.13801
20
0.010669
30
0.0
0
VERTEX
100
AcDbVertex
100
AcDb2dVertex
8
Layer01
10
99.671011
20
0.008786
30
0.0
0
VERTEX
100
AcDbVertex
100
AcDb2dVertex
8
Layer01
10
100.204012
20
0.007003
30
0.0
0
VERTEX
100
AcDbVertex
100
AcDb2dVertex
8
Layer01
10
100.737014
20
0.005318
30
0.0
0
VERTEX
100
AcDbVertex
100
AcDb2dVertex
8
Layer01
10
101.803
20
0.002044
30
0.0
0
VERTEX
100
AcDbVertex
100
AcDb2dVertex
8
Layer01
10
102.336001
20
0.000475
30
0.0
0
VERTEX
100
AcDbVertex
100
AcDb2dVertex
8
Layer01
10
102.869002
20
-0.000959
30
0.0
0
VERTEX
100
AcDbVertex
100
AcDb2dVertex
8
Layer01
10
103.402003
20
-0.002237
30
0.0
0
VERTEX
100
AcDbVertex
100
AcDb2dVertex
8
Layer01
10
103.935004
20
-0.00334
30
0.0
0
VERTEX
100
AcDbVertex
100
AcDb2dVertex
8
Layer01
10
104.468005
20
-0.004246
30
0.0
0
VERTEX
100
AcDbVertex
100
AcDb2dVertex
8
Layer01
10
105.001006
20
-0.004937
30
0.0
0
VERTEX
100
AcDbVertex
100
AcDb2dVertex
8
Layer01
10
105.534007
20
-0.005395
30
0.0
0
VERTEX
100
AcDbVertex
100
AcDb2dVertex
8
Layer01
10
106.067008
20
-0.005602
30
0.0
0
VERTEX
100
AcDbVertex
100
AcDb2dVertex
8
Layer01
10
107.133003
20
-0.004925
30
0.0
0
VERTEX
100
AcDbVertex
100
AcDb2dVertex
8
Layer01
10
107.666004
20
-0.004041
30
0.0
0
VERTEX
100
AcDbVertex
100
AcDb2dVertex
8
Layer01
10
108.199005
20
-0.002904
30
0.0
0
VERTEX
100
AcDbVertex
100
AcDb2dVertex
8
Layer01
10
108.732006
20
-0.001529
30
0.0
0
VERTEX
100
AcDbVertex
100
AcDb2dVertex
8
Layer01
10
109.265007
20
0.000065
30
0.0
0
VERTEX
100
AcDbVertex
100
AcDb2dVertex
8
Layer01
10
109.798008
20
0.001861
30
0.0
0
VERTEX
100
AcDbVertex
100
AcDb2dVertex
8
Layer01
10
110.331009
20
0.003838
30
0.0
0
VERTEX
100
AcDbVertex
100
AcDb2dVertex
8
Layer01
10
110.86401
20
0.005977
30
0.0
0
VERTEX
100
AcDbVertex
100
AcDb2dVertex
8
Layer01
10
111.397011
20
0.008257
30
0.0
0
VERTEX
100
AcDbVertex
100
AcDb2dVertex
8
Layer01
10
112.462998
20
0.012995
30
0.0
0
VERTEX
100
AcDbVertex
100
AcDb2dVertex
8
Layer01
10
112.995999
20
0.01543
30
0.0
0
VERTEX
100
AcDbVertex
100
AcDb2dVertex
8
Layer01
10
113.529
20
0.017959
30
0.0
0
VERTEX
100
AcDbVertex
100
AcDb2dVertex
8
Layer01
10
114.062001
20
0.020582
30
0.0
0
VERTEX
100
AcDbVertex
100
AcDb2dVertex
8
Layer01
10
114.595002
20
0.023296
30
0.0
0
VERTEX
100
AcDbVertex
100
AcDb2dVertex
8
Layer01
10
115.128003
20
0.0261
30
0.0
0
VERTEX
100
AcDbVertex
100
AcDb2dVertex
8
Layer01
10
115.661004
20
0.028994
30
0.0
0
VERTEX
100
AcDbVertex
100
AcDb2dVertex
8
Layer01
10
116.194005
20
0.031977
30
0.0
0
VERTEX
100
AcDbVertex
100
AcDb2dVertex
8
Layer01
10
116.727006
20
0.035051
30
0.0
0
VERTEX
100
AcDbVertex
100
AcDb2dVertex
8
Layer01
10
117.793
20
0.041512
30
0.0
0
VERTEX
100
AcDbVertex
100
AcDb2dVertex
8
Layer01
10
118.326002
20
0.044898
30
0.0
0
VERTEX
100
AcDbVertex
100
AcDb2dVertex
8
Layer01
10
118.859003
20
0.048372
30
0.0
0
VERTEX
100
AcDbVertex
100
AcDb2dVertex
8
Layer01
10
119.392004
20
0.051933
30
0.0
0
VERTEX
100
AcDbVertex
100
AcDb2dVertex
8
Layer01
10
119.925005
20
0.055577
30
0.0
0
VERTEX
100
AcDbVertex
100
AcDb2dVertex
8
Layer01
10
120.458006
20
0.059303
30
0.0
0
VERTEX
100
AcDbVertex
100
AcDb2dVertex
8
Layer01
10
120.991007
20
0.06311
30
0.0
0
VERTEX
100
AcDbVertex
100
AcDb2dVertex
8
Layer01
10
121.524008
20
0.066995
30
0.0
0
VERTEX
100
AcDbVertex
100
AcDb2dVertex
8
Layer01
10
122.057009
20
0.070957
30
0.0
0
VERTEX
100
AcDbVertex
100
AcDb2dVertex
8
Layer01
10
123.123003
20
0.079102
30
0.0
0
VERTEX
100
AcDbVertex
100
AcDb2dVertex
8
Layer01
10
123.656004
20
0.083282
30
0.0
0
VERTEX
100
AcDbVertex
100
AcDb2dVertex
8
Layer01
10
124.189005
20
0.087533
30
0.0
0
VERTEX
100
AcDbVertex
100
AcDb2dVertex
8
Layer01
10
124.722007
20
0.091852
30
0.0
0
VERTEX
100
AcDbVertex
100
AcDb2dVertex
8
Layer01
10
125.255008
20
0.096238
30
0.0
0
VERTEX
100
AcDbVertex
100
AcDb2dVertex
8
Layer01
10
125.788009
20
0.10069
30
0.0
0
VERTEX
100
AcDbVertex
100
AcDb2dVertex
8
Layer01
10
126.32101
20
0.105206
30
0.0
0
VERTEX
100
AcDbVertex
100
AcDb2dVertex
8
Layer01
10
126.854011
20
0.109785
30
0.0
0
VERTEX
100
AcDbVertex
100
AcDb2dVertex
8
Layer01
10
127.387012
20
0.114425
30
0.0
0
VERTEX
100
AcDbVertex
100
AcDb2dVertex
8
Layer01
10
128.452998
20
0.123886
30
0.0
0
VERTEX
100
AcDbVertex
100
AcDb2dVertex
8
Layer01
10
128.985999
20
0.128703
30
0.0
0
VERTEX
100
AcDbVertex
100
AcDb2dVertex
8
Layer01
10
129.519
20
0.133577
30
0.0
0
VERTEX
100
AcDbVertex
100
AcDb2dVertex
8
Layer01
10
130.052001
20
0.138507
30
0.0
0
VERTEX
100
AcDbVertex
100
AcDb2dVertex
8
Layer01
10
130.585003
20
0.14349
30
0.0
0
VERTEX
100
AcDbVertex
100
AcDb2dVertex
8
Layer01
10
131.118004
20
0.148526
30
0.0
0
VERTEX
100
AcDbVertex
100
AcDb2dVertex
8
Layer01
10
131.651005
20
0.153613
30
0.0
0
VERTEX
100
AcDbVertex
100
AcDb2dVertex
8
Layer01
10
132.184006
20
0.158751
30
0.0
0
VERTEX
100
AcDbVertex
100
AcDb2dVertex
8
Layer01
10
132.717007
20
0.163939
30
0.0
0
VERTEX
100
AcDbVertex
100
AcDb2dVertex
8
Layer01
10
133.25
20
0.169174
30
0.0
0
VERTEX
100
AcDbVertex
100
AcDb2dVertex
8
Layer01
10
133.782993
20
0.174457
30
0.0
0
VERTEX
100
AcDbVertex
100
AcDb2dVertex
8
Layer01
10
134.315986
20
0.179786
30
0.0
0
VERTEX
100
AcDbVertex
100
AcDb2dVertex
8
Layer01
10
134.848979
20
0.18516
30
0.0
0
VERTEX
100
AcDbVertex
100
AcDb2dVertex
8
Layer01
10
135.381973
20
0.190578
30
0.0
0
VERTEX
100
AcDbVertex
100
AcDb2dVertex
8
Layer01
10
135.914966
20
0.196039
30
0.0
0
VERTEX
100
AcDbVertex
100
AcDb2dVertex
8
Layer01
10
136.447959
20
0.201543
30
0.0
0
VERTEX
100
AcDbVertex
100
AcDb2dVertex
8
Layer01
10
136.980952
20
0.207089
30
0.0
0
VERTEX
100
AcDbVertex
100
AcDb2dVertex
8
Layer01
10
137.513945
20
0.212675
30
0.0
0
VERTEX
100
AcDbVertex
100
AcDb2dVertex
8
Layer01
10
138.046938
20
0.218301
30
0.0
0
VERTEX
100
AcDbVertex
100
AcDb2dVertex
8
Layer01
10
138.579931
20
0.223966
30
0.0
0
VERTEX
100
AcDbVertex
100
AcDb2dVertex
8
Layer01
10
139.112988
20
0.22967
30
0.0
0
VERTEX
100
AcDbVertex
100
AcDb2dVertex
8
Layer01
10
139.645981
20
0.235411
30
0.0
0
VERTEX
100
AcDbVertex
100
AcDb2dVertex
8
Layer01
10
140.178974
20
0.241188
30
0.0
0
VERTEX
100
AcDbVertex
100
AcDb2dVertex
8
Layer01
10
140.711967
20
0.247001
30
0.0
0
VERTEX
100
AcDbVertex
100
AcDb2dVertex
8
Layer01
10
141.244961
20
0.25285
30
0.0
0
VERTEX
100
AcDbVertex
100
AcDb2dVertex
8
Layer01
10
141.777954
20
0.258733
30
0.0
0
VERTEX
100
AcDbVertex
100
AcDb2dVertex
8
Layer01
10
142.310947
20
0.264649
30
0.0
0
VERTEX
100
AcDbVertex
100
AcDb2dVertex
8
Layer01
10
142.84394
20
0.270599
30
0.0
0
VERTEX
100
AcDbVertex
100
AcDb2dVertex
8
Layer01
10
143.376933
20
0.276582
30
0.0
0
VERTEX
100
AcDbVertex
100
AcDb2dVertex
8
Layer01
10
143.909926
20
0.282596
30
0.0
0
VERTEX
100
AcDbVertex
100
AcDb2dVertex
8
Layer01
10
144.442999
20
0.288642
30
0.0
0
VERTEX
100
AcDbVertex
100
AcDb2dVertex
8
Layer01
10
144.975992
20
0.294718
30
0.0
0
VERTEX
100
AcDbVertex
100
AcDb2dVertex
8
Layer01
10
145.508985
20
0.300824
30
0.0
0
VERTEX
100
AcDbVertex
100
AcDb2dVertex
8
Layer01
10
146.041978
20
0.306959
30
0.0
0
VERTEX
100
AcDbVertex
100
AcDb2dVertex
8
Layer01
10
146.574971
20
0.313124
30
0.0
0
VERTEX
100
AcDbVertex
100
AcDb2dVertex
8
Layer01
10
147.107965
20
0.319318
30
0.0
0
VERTEX
100
AcDbVertex
100
AcDb2dVertex
8
Layer01
10
147.640958
20
0.32554
30
0.0
0
VERTEX
100
AcDbVertex
100
AcDb2dVertex
8
Layer01
10
148.173951
20
0.331789
30
0.0
0
VERTEX
100
AcDbVertex
100
AcDb2dVertex
8
Layer01
10
148.706944
20
0.338067
30
0.0
0
VERTEX
100
AcDbVertex
100
AcDb2dVertex
8
Layer01
10
149.239937
20
0.344371
30
0.0
0
VERTEX
100
AcDbVertex
100
AcDb2dVertex
8
Layer01
10
149.772994
20
0.350727
30
0.0
0
VERTEX
100
AcDbVertex
100
AcDb2dVertex
8
Layer01
10
150.305987
20
0.357107
30
0.0
0
VERTEX
100
AcDbVertex
100
AcDb2dVertex
8
Layer01
10
150.83898
20
0.363509
30
0.0
0
VERTEX
100
AcDbVertex
100
AcDb2dVertex
8
Layer01
10
151.371973
20
0.369931
30
0.0
0
VERTEX
100
AcDbVertex
100
AcDb2dVertex
8
Layer01
10
151.904966
20
0.376371
30
0.0
0
VERTEX
100
AcDbVertex
100
AcDb2dVertex
8
Layer01
10
152.437959
20
0.382828
30
0.0
0
VERTEX
100
AcDbVertex
100
AcDb2dVertex
8
Layer01
10
152.970953
20
0.389301
30
0.0
0
VERTEX
100
AcDbVertex
100
AcDb2dVertex
8
Layer01
10
153.503946
20
0.395789
30
0.0
0
VERTEX
100
AcDbVertex
100
AcDb2dVertex
8
Layer01
10
154.036939
20
0.402292
30
0.0
0
VERTEX
100
AcDbVertex
100
AcDb2dVertex
8
Layer01
10
154.569932
20
0.40881
30
0.0
0
VERTEX
100
AcDbVertex
100
AcDb2dVertex
8
Layer01
10
155.102989
20
0.415247
30
0.0
0
VERTEX
100
AcDbVertex
100
AcDb2dVertex
8
Layer01
10
155.635982
20
0.421709
30
0.0
0
VERTEX
100
AcDbVertex
100
AcDb2dVertex
8
Layer01
10
156.168975
20
0.428207
30
0.0
0
VERTEX
100
AcDbVertex
100
AcDb2dVertex
8
Layer01
10
156.701968
20
0.434752
30
0.0
0
VERTEX
100
AcDbVertex
100
AcDb2dVertex
8
Layer01
10
157.234961
20
0.441353
30
0.0
0
VERTEX
100
AcDbVertex
100
AcDb2dVertex
8
Layer01
10
157.767954
20
0.44802
30
0.0
0
VERTEX
100
AcDbVertex
100
AcDb2dVertex
8
Layer01
10
158.300948
20
0.454764
30
0.0
0
VERTEX
100
AcDbVertex
100
AcDb2dVertex
8
Layer01
10
158.833941
20
0.461594
30
0.0
0
VERTEX
100
AcDbVertex
100
AcDb2dVertex
8
Layer01
10
159.366934
20
0.468517
30
0.0
0
VERTEX
100
AcDbVertex
100
AcDb2dVertex
8
Layer01
10
159.899927
20
0.475542
30
0.0
0
VERTEX
100
AcDbVertex
100
AcDb2dVertex
8
Layer01
10
160.432999
20
0.482822
30
0.0
0
VERTEX
100
AcDbVertex
100
AcDb2dVertex
8
Layer01
10
160.965993
20
0.490202
30
0.0
0
VERTEX
100
AcDbVertex
100
AcDb2dVertex
8
Layer01
10
161.498986
20
0.497675
30
0.0
0
VERTEX
100
AcDbVertex
100
AcDb2dVertex
8
Layer01
10
162.031979
20
0.505232
30
0.0
0
VERTEX
100
AcDbVertex
100
AcDb2dVertex
8
Layer01
10
162.564972
20
0.512864
30
0.0
0
VERTEX
100
AcDbVertex
100
AcDb2dVertex
8
Layer01
10
163.097965
20
0.520559
30
0.0
0
VERTEX
100
AcDbVertex
100
AcDb2dVertex
8
Layer01
10
163.630958
20
0.528307
30
0.0
0
VERTEX
100
AcDbVertex
100
AcDb2dVertex
8
Layer01
10
164.163951
20
0.536097
30
0.0
0
VERTEX
100
AcDbVertex
100
AcDb2dVertex
8
Layer01
10
164.696945
20
0.543918
30
0.0
0
VERTEX
100
AcDbVertex
100
AcDb2dVertex
8
Layer01
10
165.229938
20
0.551761
30
0.0
0
VERTEX
100
AcDbVertex
100
AcDb2dVertex
8
Layer01
10
165.762994
20
0.559518
30
0.0
0
VERTEX
100
AcDbVertex
100
AcDb2dVertex
8
Layer01
10
166.295988
20
0.567282
30
0.0
0
VERTEX
100
AcDbVertex
100
AcDb2dVertex
8
Layer01
10
166.828981
20
0.575053
30
0.0
0
VERTEX
100
AcDbVertex
100
AcDb2dVertex
8
Layer01
10
167.361974
20
0.582831
30
0.0
0
VERTEX
100
AcDbVertex
100
AcDb2dVertex
8
Layer01
10
167.894967
20
0.590615
30
0.0
0
VERTEX
100
AcDbVertex
100
AcDb2dVertex
8
Layer01
10
168.42796
20
0.598404
30
0.0
0
VERTEX
100
AcDbVertex
100
AcDb2dVertex
8
Layer01
10
168.960953
20
0.606199
30
0.0
0
VERTEX
100
AcDbVertex
100
AcDb2dVertex
8
Layer01
10
169.493946
20
0.614002
30
0.0
0
VERTEX
100
AcDbVertex
100
AcDb2dVertex
8
Layer01
10
170.02694
20
0.621812
30
0.0
0
VERTEX
100
AcDbVertex
100
AcDb2dVertex
8
Layer01
10
170.559933
20
0.629632
30
0.0
0
VERTEX
100
AcDbVertex
100
AcDb2dVertex
8
Layer01
10
171.092989
20
0.637486
30
0.0
0
VERTEX
100
AcDbVertex
100
AcDb2dVertex
8
Layer01
10
171.625982
20
0.64535
30
0.0
0
VERTEX
100
AcDbVertex
100
AcDb2dVertex
8
Layer01
10
172.158976
20
0.653221
30
0.0
0
VERTEX
100
AcDbVertex
100
AcDb2dVertex
8
Layer01
10
172.691969
20
0.661101
30
0.0
0
VERTEX
100
AcDbVertex
100
AcDb2dVertex
8
Layer01
10
173.224962
20
0.668989
30
0.0
0
VERTEX
100
AcDbVertex
100
AcDb2dVertex
8
Layer01
10
173.757955
20
0.676883
30
0.0
0
VERTEX
100
AcDbVertex
100
AcDb2dVertex
8
Layer01
10
174.290948
20
0.684784
30
0.0
0
VERTEX
100
AcDbVertex
100
AcDb2dVertex
8
Layer01
10
174.823941
20
0.69269
30
0.0
0
VERTEX
100
AcDbVertex
100
AcDb2dVertex
8
Layer01
10
175.356934
20
0.700601
30
0.0
0
VERTEX
100
AcDbVertex
100
AcDb2dVertex
8
Layer01
10
175.889928
20
0.708516
30
0.0
0
VERTEX
100
AcDbVertex
100
AcDb2dVertex
8
Layer01
10
176.423
20
0.716436
30
0.0
0
VERTEX
100
AcDbVertex
100
AcDb2dVertex
8
Layer01
10
176.955993
20
0.724357
30
0.0
0
VERTEX
100
AcDbVertex
100
AcDb2dVertex
8
Layer01
10
177.488986
20
0.732281
30
0.0
0
VERTEX
100
AcDbVertex
100
AcDb2dVertex
8
Layer01
10
178.02198
20
0.740207
30
0.0
0
VERTEX
100
AcDbVertex
100
AcDb2dVertex
8
Layer01
10
178.554973
20
0.748135
30
0.0
0
VERTEX
100
AcDbVertex
100
AcDb2dVertex
8
Layer01
10
179.087966
20
0.756063
30
0.0
0
VERTEX
100
AcDbVertex
100
AcDb2dVertex
8
Layer01
10
179.620959
20
0.763991
30
0.0
0
VERTEX
100
AcDbVertex
100
AcDb2dVertex
8
Layer01
10
180.153952
20
0.77192
30
0.0
0
VERTEX
100
AcDbVertex
100
AcDb2dVertex
8
Layer01
10
180.686945
20
0.779847
30
0.0
0
VERTEX
100
AcDbVertex
100
AcDb2dVertex
8
Layer01
10
181.219938
20
0.787773
30
0.0
0
VERTEX
100
AcDbVertex
100
AcDb2dVertex
8
Layer01
10
181.752995
20
0.795697
30
0.0
0
VERTEX
100
AcDbVertex
100
AcDb2dVertex
8
Layer01
10
182.285988
20
0.803618
30
0.0
0
VERTEX
100
AcDbVertex
100
AcDb2dVertex
8
Layer01
10
182.818981
20
0.811536
30
0.0
0
VERTEX
100
AcDbVertex
100
AcDb2dVertex
8
Layer01
10
183.351974
20
0.819452
30
0.0
0
VERTEX
100
AcDbVertex
100
AcDb2dVertex
8
Layer01
10
183.884968
20
0.827365
30
0.0
0
VERTEX
100
AcDbVertex
100
AcDb2dVertex
8
Layer01
10
184.417961
20
0.835274
30
0.0
0
VERTEX
100
AcDbVertex
100
AcDb2dVertex
8
Layer01
10
184.950954
20
0.84318
30
0.0
0
VERTEX
100
AcDbVertex
100
AcDb2dVertex
8
Layer01
10
185.483947
20
0.851081
30
0.0
0
VERTEX
100
AcDbVertex
100
AcDb2dVertex
8
Layer01
10
186.01694
20
0.858978
30
0.0
0
VERTEX
100
AcDbVertex
100
AcDb2dVertex
8
Layer01
10
186.549933
20
0.86687
30
0.0
0
VERTEX
100
AcDbVertex
100
AcDb2dVertex
8
Layer01
10
187.08299
20
0.874761
30
0.0
0
VERTEX
100
AcDbVertex
100
AcDb2dVertex
8
Layer01
10
187.615983
20
0.882646
30
0.0
0
VERTEX
100
AcDbVertex
100
AcDb2dVertex
8
Layer01
10
188.148976
20
0.890524
30
0.0
0
VERTEX
100
AcDbVertex
100
AcDb2dVertex
8
Layer01
10
188.681969
20
0.898395
30
0.0
0
VERTEX
100
AcDbVertex
100
AcDb2dVertex
8
Layer01
10
189.214963
20
0.906258
30
0.0
0
VERTEX
100
AcDbVertex
100
AcDb2dVertex
8
Layer01
10
189.747956
20
0.914113
30
0.0
0
VERTEX
100
AcDbVertex
100
AcDb2dVertex
8
Layer01
10
190.280949
20
0.921958
30
0.0
0
VERTEX
100
AcDbVertex
100
AcDb2dVertex
8
Layer01
10
190.813942
20
0.929794
30
0.0
0
VERTEX
100
AcDbVertex
100
AcDb2dVertex
8
Layer01
10
191.346935
20
0.93762
30
0.0
0
VERTEX
100
AcDbVertex
100
AcDb2dVertex
8
Layer01
10
191.879928
20
0.945434
30
0.0
0
VERTEX
100
AcDbVertex
100
AcDb2dVertex
8
Layer01
10
192.413001
20
0.953235
30
0.0
0
VERTEX
100
AcDbVertex
100
AcDb2dVertex
8
Layer01
10
192.945994
20
0.961022
30
0.0
0
VERTEX
100
AcDbVertex
100
AcDb2dVertex
8
Layer01
10
193.478987
20
0.968798
30
0.0
0
VERTEX
100
AcDbVertex
100
AcDb2dVertex
8
Layer01
10
194.01198
20
0.976561
30
0.0
0
VERTEX
100
AcDbVertex
100
AcDb2dVertex
8
Layer01
10
194.544973
20
0.984313
30
0.0
0
VERTEX
100
AcDbVertex
100
AcDb2dVertex
8
Layer01
10
195.077966
20
0.992051
30
0.0
0
VERTEX
100
AcDbVertex
100
AcDb2dVertex
8
Layer01
10
195.61096
20
0.999778
30
0.0
0
VERTEX
100
AcDbVertex
100
AcDb2dVertex
8
Layer01
10
196.143953
20
1.007491
30
0.0
0
VERTEX
100
AcDbVertex
100
AcDb2dVertex
8
Layer01
10
196.676946
20
1.015192
30
0.0
0
VERTEX
100
AcDbVertex
100
AcDb2dVertex
8
Layer01
10
197.209939
20
1.022879
30
0.0
0
VERTEX
100
AcDbVertex
100
AcDb2dVertex
8
Layer01
10
197.742996
20
1.030558
30
0.0
0
VERTEX
100
AcDbVertex
100
AcDb2dVertex
8
Layer01
10
198.275989
20
1.038222
30
0.0
0
VERTEX
100
AcDbVertex
100
AcDb2dVertex
8
Layer01
10
198.808982
20
1.045873
30
0.0
0
VERTEX
100
AcDbVertex
100
AcDb2dVertex
8
Layer01
10
199.341975
20
1.053508
30
0.0
0
VERTEX
100
AcDbVertex
100
AcDb2dVertex
8
Layer01
10
199.874968
20
1.061129
30
0.0
0
VERTEX
100
AcDbVertex
100
AcDb2dVertex
8
Layer01
10
200.407961
20
1.068735
30
0.0
0
VERTEX
100
AcDbVertex
100
AcDb2dVertex
8
Layer01
10
200.940955
20
1.076324
30
0.0
0
VERTEX
100
AcDbVertex
100
AcDb2dVertex
8
Layer01
10
201.473948
20
1.083897
30
0.0
0
VERTEX
100
AcDbVertex
100
AcDb2dVertex
8
Layer01
10
202.006941
20
1.091453
30
0.0
0
VERTEX
100
AcDbVertex
100
AcDb2dVertex
8
Layer01
10
202.539934
20
1.098992
30
0.0
0
VERTEX
100
AcDbVertex
100
AcDb2dVertex
8
Layer01
10
203.072991
20
1.106512
30
0.0
0
VERTEX
100
AcDbVertex
100
AcDb2dVertex
8
Layer01
10
203.605984
20
1.114014
30
0.0
0
VERTEX
100
AcDbVertex
100
AcDb2dVertex
8
Layer01
10
204.138977
20
1.121497
30
0.0
0
VERTEX
100
AcDbVertex
100
AcDb2dVertex
8
Layer01
10
204.67197
20
1.128961
30
0.0
0
VERTEX
100
AcDbVertex
100
AcDb2dVertex
8
Layer01
10
205.204963
20
1.136407
30
0.0
0
VERTEX
100
AcDbVertex
100
AcDb2dVertex
8
Layer01
10
205.737956
20
1.143834
30
0.0
0
VERTEX
100
AcDbVertex
100
AcDb2dVertex
8
Layer01
10
206.270949
20
1.151241
30
0.0
0
VERTEX
100
AcDbVertex
100
AcDb2dVertex
8
Layer01
10
206.803943
20
1.158629
30
0.0
0
VERTEX
100
AcDbVertex
100
AcDb2dVertex
8
Layer01
10
207.336936
20
1.165997
30
0.0
0
VERTEX
100
AcDbVertex
100
AcDb2dVertex
8
Layer01
10
207.869929
20
1.173345
30
0.0
0
VERTEX
100
AcDbVertex
100
AcDb2dVertex
8
Layer01
10
208.402986
20
1.180672
30
0.0
0
VERTEX
100
AcDbVertex
100
AcDb2dVertex
8
Layer01
10
208.935979
20
1.187979
30
0.0
0
VERTEX
100
AcDbVertex
100
AcDb2dVertex
8
Layer01
10
209.468972
20
1.195266
30
0.0
0
VERTEX
100
AcDbVertex
100
AcDb2dVertex
8
Layer01
10
210.001965
20
1.202533
30
0.0
0
VERTEX
100
AcDbVertex
100
AcDb2dVertex
8
Layer01
10
210.534958
20
1.20978
30
0.0
0
VERTEX
100
AcDbVertex
100
AcDb2dVertex
8
Layer01
10
211.067951
20
1.217008
30
0.0
0
VERTEX
100
AcDbVertex
100
AcDb2dVertex
8
Layer01
10
211.600944
20
1.224217
30
0.0
0
VERTEX
100
AcDbVertex
100
AcDb2dVertex
8
Layer01
10
212.133937
20
1.231406
30
0.0
0
VERTEX
100
AcDbVertex
100
AcDb2dVertex
8
Layer01
10
212.666931
20
1.238576
30
0.0
0
VERTEX
100
AcDbVertex
100
AcDb2dVertex
8
Layer01
10
213.199924
20
1.245727
30
0.0
0
VERTEX
100
AcDbVertex
100
AcDb2dVertex
8
Layer01
10
213.732996
20
1.252863
30
0.0
0
VERTEX
100
AcDbVertex
100
AcDb2dVertex
8
Layer01
10
214.265989
20
1.259978
30
0.0
0
VERTEX
100
AcDbVertex
100
AcDb2dVertex
8
Layer01
10
214.798983
20
1.267073
30
0.0
0
VERTEX
100
AcDbVertex
100
AcDb2dVertex
8
Layer01
10
215.331976
20
1.274148
30
0.0
0
VERTEX
100
AcDbVertex
100
AcDb2dVertex
8
Layer01
10
215.864969
20
1.281201
30
0.0
0
VERTEX
100
AcDbVertex
100
AcDb2dVertex
8
Layer01
10
216.397962
20
1.288233
30
0.0
0
VERTEX
100
AcDbVertex
100
AcDb2dVertex
8
Layer01
10
216.930955
20
1.295243
30
0.0
0
VERTEX
100
AcDbVertex
100
AcDb2dVertex
8
Layer01
10
217.463948
20
1.302231
30
0.0
0
VERTEX
100
AcDbVertex
100
AcDb2dVertex
8
Layer01
10
217.996941
20
1.309195
30
0.0
0
VERTEX
100
AcDbVertex
100
AcDb2dVertex
8
Layer01
10
218.529935
20
1.316136
30
0.0
0
VERTEX
100
AcDbVertex
100
AcDb2dVertex
8
Layer01
10
219.062991
20
1.323052
30
0.0
0
VERTEX
100
AcDbVertex
100
AcDb2dVertex
8
Layer01
10
219.595984
20
1.329944
30
0.0
0
VERTEX
100
AcDbVertex
100
AcDb2dVertex
8
Layer01
10
220.128978
20
1.33681
30
0.0
0
VERTEX
100
AcDbVertex
100
AcDb2dVertex
8
Layer01
10
220.661971
20
1.343651
30
0.0
0
VERTEX
100
AcDbVertex
100
AcDb2dVertex
8
Layer01
10
221.194964
20
1.350466
30
0.0
0
VERTEX
100
AcDbVertex
100
AcDb2dVertex
8
Layer01
10
221.727957
20
1.357255
30
0.0
0
VERTEX
100
AcDbVertex
100
AcDb2dVertex
8
Layer01
10
222.26095
20
1.364018
30
0.0
0
VERTEX
100
AcDbVertex
100
AcDb2dVertex
8
Layer01
10
222.793943
20
1.370755
30
0.0
0
VERTEX
100
AcDbVertex
100
AcDb2dVertex
8
Layer01
10
223.326936
20
1.377464
30
0.0
0
VERTEX
100
AcDbVertex
100
AcDb2dVertex
8
Layer01
10
223.859929
20
1.384147
30
0.0
0
VERTEX
100
AcDbVertex
100
AcDb2dVertex
8
Layer01
10
224.392986
20
1.390801
30
0.0
0
VERTEX
100
AcDbVertex
100
AcDb2dVertex
8
Layer01
10
224.925979
20
1.397427
30
0.0
0
VERTEX
100
AcDbVertex
100
AcDb2dVertex
8
Layer01
10
225.458972
20
1.404025
30
0.0
0
VERTEX
100
AcDbVertex
100
AcDb2dVertex
8
Layer01
10
225.991966
20
1.410595
30
0.0
0
VERTEX
100
AcDbVertex
100
AcDb2dVertex
8
Layer01
10
226.524959
20
1.417138
30
0.0
0
VERTEX
100
AcDbVertex
100
AcDb2dVertex
8
Layer01
10
227.057952
20
1.423654
30
0.0
0
VERTEX
100
AcDbVertex
100
AcDb2dVertex
8
Layer01
10
227.590945
20
1.430142
30
0.0
0
VERTEX
100
AcDbVertex
100
AcDb2dVertex
8
Layer01
10
228.123938
20
1.436602
30
0.0
0
VERTEX
100
AcDbVertex
100
AcDb2dVertex
8
Layer01
10
228.656931
20
1.443034
30
0.0
0
VERTEX
100
AcDbVertex
100
AcDb2dVertex
8
Layer01
10
229.189924
20
1.449439
30
0.0
0
VERTEX
100
AcDbVertex
100
AcDb2dVertex
8
Layer01
10
229.722997
20
1.455819
30
0.0
0
VERTEX
100
AcDbVertex
100
AcDb2dVertex
8
Layer01
10
230.25599
20
1.462171
30
0.0
0
VERTEX
100
AcDbVertex
100
AcDb2dVertex
8
Layer01
10
230.788983
20
1.468494
30
0.0
0
VERTEX
100
AcDbVertex
100
AcDb2dVertex
8
Layer01
10
231.321976
20
1.47479
30
0.0
0
VERTEX
100
AcDbVertex
100
AcDb2dVertex
8
Layer01
10
231.85497
20
1.481057
30
0.0
0
VERTEX
100
AcDbVertex
100
AcDb2dVertex
8
Layer01
10
232.387963
20
1.487295
30
0.0
0
VERTEX
100
AcDbVertex
100
AcDb2dVertex
8
Layer01
10
232.920956
20
1.493505
30
0.0
0
VERTEX
100
AcDbVertex
100
AcDb2dVertex
8
Layer01
10
233.453949
20
1.499686
30
0.0
0
VERTEX
100
AcDbVertex
100
AcDb2dVertex
8
Layer01
10
233.986942
20
1.505838
30
0.0
0
VERTEX
100
AcDbVertex
100
AcDb2dVertex
8
Layer01
10
234.519935
20
1.51196
30
0.0
0
VERTEX
100
AcDbVertex
100
AcDb2dVertex
8
Layer01
10
235.052992
20
1.518053
30
0.0
0
VERTEX
100
AcDbVertex
100
AcDb2dVertex
8
Layer01
10
235.585985
20
1.524116
30
0.0
0
VERTEX
100
AcDbVertex
100
AcDb2dVertex
8
Layer01
10
236.118978
20
1.530149
30
0.0
0
VERTEX
100
AcDbVertex
100
AcDb2dVertex
8
Layer01
10
236.651971
20
1.536153
30
0.0
0
VERTEX
100
AcDbVertex
100
AcDb2dVertex
8
Layer01
10
237.184964
20
1.542126
30
0.0
0
VERTEX
100
AcDbVertex
100
AcDb2dVertex
8
Layer01
10
237.717958
20
1.548071
30
0.0
0
VERTEX
100
AcDbVertex
100
AcDb2dVertex
8
Layer01
10
238.250951
20
1.553985
30
0.0
0
VERTEX
100
AcDbVertex
100
AcDb2dVertex
8
Layer01
10
238.783944
20
1.55987
30
0.0
0
VERTEX
100
AcDbVertex
100
AcDb2dVertex
8
Layer01
10
239.316937
20
1.565725
30
0.0
0
VERTEX
100
AcDbVertex
100
AcDb2dVertex
8
Layer01
10
239.84993
20
1.57155
30
0.0
0
VERTEX
100
AcDbVertex
100
AcDb2dVertex
8
Layer01
10
240.382987
20
1.577346
30
0.0
0
VERTEX
100
AcDbVertex
100
AcDb2dVertex
8
Layer01
10
240.91598
20
1.583111
30
0.0
0
VERTEX
100
AcDbVertex
100
AcDb2dVertex
8
Layer01
10
241.448973
20
1.588847
30
0.0
0
VERTEX
100
AcDbVertex
100
AcDb2dVertex
8
Layer01
10
241.981966
20
1.594553
30
0.0
0
VERTEX
100
AcDbVertex
100
AcDb2dVertex
8
Layer01
10
242.514959
20
1.600228
30
0.0
0
VERTEX
100
AcDbVertex
100
AcDb2dVertex
8
Layer01
10
243.047952
20
1.605874
30
0.0
0
VERTEX
100
AcDbVertex
100
AcDb2dVertex
8
Layer01
10
243.580946
20
1.611489
30
0.0
0
VERTEX
100
AcDbVertex
100
AcDb2dVertex
8
Layer01
10
244.113939
20
1.617074
30
0.0
0
VERTEX
100
AcDbVertex
100
AcDb2dVertex
8
Layer01
10
244.646932
20
1.62263
30
0.0
0
VERTEX
100
AcDbVertex
100
AcDb2dVertex
8
Layer01
10
245.179925
20
1.628154
30
0.0
0
VERTEX
100
AcDbVertex
100
AcDb2dVertex
8
Layer01
10
245.712998
20
1.63365
30
0.0
0
VERTEX
100
AcDbVertex
100
AcDb2dVertex
8
Layer01
10
246.245991
20
1.639115
30
0.0
0
VERTEX
100
AcDbVertex
100
AcDb2dVertex
8
Layer01
10
246.778984
20
1.64455
30
0.0
0
VERTEX
100
AcDbVertex
100
AcDb2dVertex
8
Layer01
10
247.311977
20
1.649953
30
0.0
0
VERTEX
100
AcDbVertex
100
AcDb2dVertex
8
Layer01
10
247.84497
20
1.655326
30
0.0
0
VERTEX
100
AcDbVertex
100
AcDb2dVertex
8
Layer01
10
248.377963
20
1.660667
30
0.0
0
VERTEX
100
AcDbVertex
100
AcDb2dVertex
8
Layer01
10
248.910956
20
1.665978
30
0.0
0
VERTEX
100
AcDbVertex
100
AcDb2dVertex
8
Layer01
10
249.44395
20
1.671257
30
0.0
0
VERTEX
100
AcDbVertex
100
AcDb2dVertex
8
Layer01
10
249.976943
20
1.676505
30
0.0
0
VERTEX
100
AcDbVertex
100
AcDb2dVertex
8
Layer01
10
250.509936
20
1.681721
30
0.0
0
VERTEX
100
AcDbVertex
100
AcDb2dVertex
8
Layer01
10
251.042993
20
1.686905
30
0.0
0
VERTEX
100
AcDbVertex
100
AcDb2dVertex
8
Layer01
10
251.575986
20
1.692057
30
0.0
0
VERTEX
100
AcDbVertex
100
AcDb2dVertex
8
Layer01
10
252.108979
20
1.697177
30
0.0
0
VERTEX
100
AcDbVertex
100
AcDb2dVertex
8
Layer01
10
252.641972
20
1.702266
30
0.0
0
VERTEX
100
AcDbVertex
100
AcDb2dVertex
8
Layer01
10
253.174965
20
1.707324
30
0.0
0
VERTEX
100
AcDbVertex
100
AcDb2dVertex
8
Layer01
10
253.707958
20
1.71235
30
0.0
0
VERTEX
100
AcDbVertex
100
AcDb2dVertex
8
Layer01
10
254.240951
20
1.717345
30
0.0
0
VERTEX
100
AcDbVertex
100
AcDb2dVertex
8
Layer01
10
254.773944
20
1.722309
30
0.0
0
VERTEX
100
AcDbVertex
100
AcDb2dVertex
8
Layer01
10
255.306938
20
1.727241
30
0.0
0
VERTEX
100
AcDbVertex
100
AcDb2dVertex
8
Layer01
10
255.839931
20
1.732143
30
0.0
0
VERTEX
100
AcDbVertex
100
AcDb2dVertex
8
Layer01
10
256.372987
20
1.737006
30
0.0
0
VERTEX
100
AcDbVertex
100
AcDb2dVertex
8
Layer01
10
256.905981
20
1.741838
30
0.0
0
VERTEX
100
AcDbVertex
100
AcDb2dVertex
8
Layer01
10
257.438974
20
1.746641
30
0.0
0
VERTEX
100
AcDbVertex
100
AcDb2dVertex
8
Layer01
10
257.971967
20
1.751415
30
0.0
0
VERTEX
100
AcDbVertex
100
AcDb2dVertex
8
Layer01
10
258.50496
20
1.756161
30
0.0
0
VERTEX
100
AcDbVertex
100
AcDb2dVertex
8
Layer01
10
259.037953
20
1.760878
30
0.0
0
VERTEX
100
AcDbVertex
100
AcDb2dVertex
8
Layer01
10
259.570946
20
1.765568
30
0.0
0
VERTEX
100
AcDbVertex
100
AcDb2dVertex
8
Layer01
10
260.103939
20
1.770231
30
0.0
0
VERTEX
100
AcDbVertex
100
AcDb2dVertex
8
Layer01
10
260.636933
20
1.774866
30
0.0
0
VERTEX
100
AcDbVertex
100
AcDb2dVertex
8
Layer01
10
261.169926
20
1.779473
30
0.0
0
VERTEX
100
AcDbVertex
100
AcDb2dVertex
8
Layer01
10
261.702998
20
1.784088
30
0.0
0
VERTEX
100
AcDbVertex
100
AcDb2dVertex
8
Layer01
10
262.235991
20
1.78867
30
0.0
0
VERTEX
100
AcDbVertex
100
AcDb2dVertex
8
Layer01
10
262.768984
20
1.793217
30
0.0
0
VERTEX
100
AcDbVertex
100
AcDb2dVertex
8
Layer01
10
263.301978
20
1.797725
30
0.0
0
VERTEX
100
AcDbVertex
100
AcDb2dVertex
8
Layer01
10
263.834971
20
1.802191
30
0.0
0
VERTEX
100
AcDbVertex
100
AcDb2dVertex
8
Layer01
10
264.367964
20
1.806611
30
0.0
0
VERTEX
100
AcDbVertex
100
AcDb2dVertex
8
Layer01
10
264.900957
20
1.810982
30
0.0
0
VERTEX
100
AcDbVertex
100
AcDb2dVertex
8
Layer01
10
265.43395
20
1.8153
30
0.0
0
VERTEX
100
AcDbVertex
100
AcDb2dVertex
8
Layer01
10
265.966943
20
1.819562
30
0.0
0
VERTEX
100
AcDbVertex
100
AcDb2dVertex
8
Layer01
10
266.499936
20
1.823766
30
0.0
0
VERTEX
100
AcDbVertex
100
AcDb2dVertex
8
Layer01
10
267.032993
20
1.827858
30
0.0
0
VERTEX
100
AcDbVertex
100
AcDb2dVertex
8
Layer01
10
267.565986
20
1.831892
30
0.0
0
VERTEX
100
AcDbVertex
100
AcDb2dVertex
8
Layer01
10
268.098979
20
1.83587
30
0.0
0
VERTEX
100
AcDbVertex
100
AcDb2dVertex
8
Layer01
10
268.631973
20
1.839796
30
0.0
0
VERTEX
100
AcDbVertex
100
AcDb2dVertex
8
Layer01
10
269.164966
20
1.843674
30
0.0
0
VERTEX
100
AcDbVertex
100
AcDb2dVertex
8
Layer01
10
269.697959
20
1.847506
30
0.0
0
VERTEX
100
AcDbVertex
100
AcDb2dVertex
8
Layer01
10
270.230952
20
1.851297
30
0.0
0
VERTEX
100
AcDbVertex
100
AcDb2dVertex
8
Layer01
10
270.763945
20
1.855051
30
0.0
0
VERTEX
100
AcDbVertex
100
AcDb2dVertex
8
Layer01
10
271.296938
20
1.858771
30
0.0
0
VERTEX
100
AcDbVertex
100
AcDb2dVertex
8
Layer01
10
271.829931
20
1.862461
30
0.0
0
VERTEX
100
AcDbVertex
100
AcDb2dVertex
8
Layer01
10
272.362988
20
1.866159
30
0.0
0
VERTEX
100
AcDbVertex
100
AcDb2dVertex
8
Layer01
10
272.895981
20
1.869831
30
0.0
0
VERTEX
100
AcDbVertex
100
AcDb2dVertex
8
Layer01
10
273.428974
20
1.873479
30
0.0
0
VERTEX
100
AcDbVertex
100
AcDb2dVertex
8
Layer01
10
273.961967
20
1.877101
30
0.0
0
VERTEX
100
AcDbVertex
100
AcDb2dVertex
8
Layer01
10
274.494961
20
1.8807
30
0.0
0
VERTEX
100
AcDbVertex
100
AcDb2dVertex
8
Layer01
10
275.027954
20
1.884275
30
0.0
0
VERTEX
100
AcDbVertex
100
AcDb2dVertex
8
Layer01
10
275.560947
20
1.887826
30
0.0
0
VERTEX
100
AcDbVertex
100
AcDb2dVertex
8
Layer01
10
276.09394
20
1.891352
30
0.0
0
VERTEX
100
AcDbVertex
100
AcDb2dVertex
8
Layer01
10
276.626933
20
1.894855
30
0.0
0
VERTEX
100
AcDbVertex
100
AcDb2dVertex
8
Layer01
10
277.159926
20
1.898332
30
0.0
0
VERTEX
100
AcDbVertex
100
AcDb2dVertex
8
Layer01
10
277.692983
20
1.901778
30
0.0
0
VERTEX
100
AcDbVertex
100
AcDb2dVertex
8
Layer01
10
278.225976
20
1.905199
30
0.0
0
VERTEX
100
AcDbVertex
100
AcDb2dVertex
8
Layer01
10
278.758969
20
1.908595
30
0.0
0
VERTEX
100
AcDbVertex
100
AcDb2dVertex
8
Layer01
10
279.291962
20
1.911966
30
0.0
0
VERTEX
100
AcDbVertex
100
AcDb2dVertex
8
Layer01
10
279.824956
20
1.915314
30
0.0
0
VERTEX
100
AcDbVertex
100
AcDb2dVertex
8
Layer01
10
280.357949
20
1.918638
30
0.0
0
VERTEX
100
AcDbVertex
100
AcDb2dVertex
8
Layer01
10
280.890942
20
1.921938
30
0.0
0
VERTEX
100
AcDbVertex
100
AcDb2dVertex
8
Layer01
10
281.423935
20
1.925215
30
0.0
0
VERTEX
100
AcDbVertex
100
AcDb2dVertex
8
Layer01
10
281.956928
20
1.928468
30
0.0
0
VERTEX
100
AcDbVertex
100
AcDb2dVertex
8
Layer01
10
282.489921
20
1.931698
30
0.0
0
VERTEX
100
AcDbVertex
100
AcDb2dVertex
8
Layer01
10
283.022978
20
1.934906
30
0.0
0
VERTEX
100
AcDbVertex
100
AcDb2dVertex
8
Layer01
10
283.555971
20
1.93809
30
0.0
0
VERTEX
100
AcDbVertex
100
AcDb2dVertex
8
Layer01
10
284.088964
20
1.941252
30
0.0
0
VERTEX
100
AcDbVertex
100
AcDb2dVertex
8
Layer01
10
284.621957
20
1.944392
30
0.0
0
VERTEX
100
AcDbVertex
100
AcDb2dVertex
8
Layer01
10
285.15495
20
1.94751
30
0.0
0
VERTEX
100
AcDbVertex
100
AcDb2dVertex
8
Layer01
10
285.687944
20
1.950605
30
0.0
0
VERTEX
100
AcDbVertex
100
AcDb2dVertex
8
Layer01
10
286.220937
20
1.953679
30
0.0
0
VERTEX
100
AcDbVertex
100
AcDb2dVertex
8
Layer01
10
286.75393
20
1.956731
30
0.0
0
VERTEX
100
AcDbVertex
100
AcDb2dVertex
8
Layer01
10
287.286923
20
1.959762
30
0.0
0
VERTEX
100
AcDbVertex
100
AcDb2dVertex
8
Layer01
10
287.819916
20
1.962772
30
0.0
0
VERTEX
100
AcDbVertex
100
AcDb2dVertex
8
Layer01
10
288.353005
20
1.96576
30
0.0
0
VERTEX
100
AcDbVertex
100
AcDb2dVertex
8
Layer01
10
288.885998
20
1.968727
30
0.0
0
VERTEX
100
AcDbVertex
100
AcDb2dVertex
8
Layer01
10
289.418991
20
1.971674
30
0.0
0
VERTEX
100
AcDbVertex
100
AcDb2dVertex
8
Layer01
10
289.951984
20
1.974602
30
0.0
0
VERTEX
100
AcDbVertex
100
AcDb2dVertex
8
Layer01
10
290.484977
20
1.977509
30
0.0
0
VERTEX
100
AcDbVertex
100
AcDb2dVertex
8
Layer01
10
291.01797
20
1.980398
30
0.0
0
VERTEX
100
AcDbVertex
100
AcDb2dVertex
8
Layer01
10
291.550963
20
1.983267
30
0.0
0
VERTEX
100
AcDbVertex
100
AcDb2dVertex
8
Layer01
10
292.083957
20
1.986119
30
0.0
0
VERTEX
100
AcDbVertex
100
AcDb2dVertex
8
Layer01
10
292.61695
20
1.988952
30
0.0
0
VERTEX
100
AcDbVertex
100
AcDb2dVertex
8
Layer01
10
293.149943
20
1.991767
30
0.0
0
VERTEX
100
AcDbVertex
100
AcDb2dVertex
8
Layer01
10
293.682999
20
1.994567
30
0.0
0
VERTEX
100
AcDbVertex
100
AcDb2dVertex
8
Layer01
10
294.215993
20
1.997349
30
0.0
0
VERTEX
100
AcDbVertex
100
AcDb2dVertex
8
Layer01
10
294.748986
20
2.000114
30
0.0
0
VERTEX
100
AcDbVertex
100
AcDb2dVertex
8
Layer01
10
295.281979
20
2.002862
30
0.0
0
VERTEX
100
AcDbVertex
100
AcDb2dVertex
8
Layer01
10
295.814972
20
2.005593
30
0.0
0
VERTEX
100
AcDbVertex
100
AcDb2dVertex
8
Layer01
10
296.347965
20
2.008308
30
0.0
0
VERTEX
100
AcDbVertex
100
AcDb2dVertex
8
Layer01
10
296.880958
20
2.011006
30
0.0
0
VERTEX
100
AcDbVertex
100
AcDb2dVertex
8
Layer01
10
297.413951
20
2.013688
30
0.0
0
VERTEX
100
AcDbVertex
100
AcDb2dVertex
8
Layer01
10
297.946945
20
2.016354
30
0.0
0
VERTEX
100
AcDbVertex
100
AcDb2dVertex
8
Layer01
10
298.479938
20
2.019004
30
0.0
0
VERTEX
100
AcDbVertex
100
AcDb2dVertex
8
Layer01
10
299.012994
20
2.021638
30
0.0
0
VERTEX
100
AcDbVertex
100
AcDb2dVertex
8
Layer01
10
299.545988
20
2.024256
30
0.0
0
VERTEX
100
AcDbVertex
100
AcDb2dVertex
8
Layer01
10
300.078981
20
2.026859
30
0.0
0
VERTEX
100
AcDbVertex
100
AcDb2dVertex
8
Layer01
10
300.611974
20
2.029445
30
0.0
0
VERTEX
100
AcDbVertex
100
AcDb2dVertex
8
Layer01
10
301.144967
20
2.032016
30
0.0
0
VERTEX
100
AcDbVertex
100
AcDb2dVertex
8
Layer01
10
301.67796
20
2.034572
30
0.0
0
VERTEX
100
AcDbVertex
100
AcDb2dVertex
8
Layer01
10
302.210953
20
2.037112
30
0.0
0
VERTEX
100
AcDbVertex
100
AcDb2dVertex
8
Layer01
10
302.743946
20
2.039637
30
0.0
0
VERTEX
100
AcDbVertex
100
AcDb2dVertex
8
Layer01
10
303.27694
20
2.042147
30
0.0
0
VERTEX
100
AcDbVertex
100
AcDb2dVertex
8
Layer01
10
303.809933
20
2.044641
30
0.0
0
VERTEX
100
AcDbVertex
100
AcDb2dVertex
8
Layer01
10
304.342989
20
2.047119
30
0.0
0
VERTEX
100
AcDbVertex
100
AcDb2dVertex
8
Layer01
10
304.875982
20
2.049582
30
0.0
0
VERTEX
100
AcDbVertex
100
AcDb2dVertex
8
Layer01
10
305.408976
20
2.052031
30
0.0
0
VERTEX
100
AcDbVertex
100
AcDb2dVertex
8
Layer01
10
305.941969
20
2.054465
30
0.0
0
VERTEX
100
AcDbVertex
100
AcDb2dVertex
8
Layer01
10
306.474962
20
2.056886
30
0.0
0
VERTEX
100
AcDbVertex
100
AcDb2dVertex
8
Layer01
10
307.007955
20
2.059292
30
0.0
0
VERTEX
100
AcDbVertex
100
AcDb2dVertex
8
Layer01
10
307.540948
20
2.061685
30
0.0
0
VERTEX
100
AcDbVertex
100
AcDb2dVertex
8
Layer01
10
308.073941
20
2.064065
30
0.0
0
VERTEX
100
AcDbVertex
100
AcDb2dVertex
8
Layer01
10
308.606934
20
2.066432
30
0.0
0
VERTEX
100
AcDbVertex
100
AcDb2dVertex
8
Layer01
10
309.139928
20
2.068786
30
0.0
0
VERTEX
100
AcDbVertex
100
AcDb2dVertex
8
Layer01
10
309.672984
20
2.071162
30
0.0
0
VERTEX
100
AcDbVertex
100
AcDb2dVertex
8
Layer01
10
310.205977
20
2.073522
30
0.0
0
VERTEX
100
AcDbVertex
100
AcDb2dVertex
8
Layer01
10
310.738971
20
2.075865
30
0.0
0
VERTEX
100
AcDbVertex
100
AcDb2dVertex
8
Layer01
10
311.271964
20
2.078189
30
0.0
0
VERTEX
100
AcDbVertex
100
AcDb2dVertex
8
Layer01
10
311.804957
20
2.080491
30
0.0
0
VERTEX
100
AcDbVertex
100
AcDb2dVertex
8
Layer01
10
312.33795
20
2.082771
30
0.0
0
VERTEX
100
AcDbVertex
100
AcDb2dVertex
8
Layer01
10
312.870943
20
2.085027
30
0.0
0
VERTEX
100
AcDbVertex
100
AcDb2dVertex
8
Layer01
10
313.403936
20
2.087259
30
0.0
0
VERTEX
100
AcDbVertex
100
AcDb2dVertex
8
Layer01
10
313.936929
20
2.089466
30
0.0
0
VERTEX
100
AcDbVertex
100
AcDb2dVertex
8
Layer01
10
314.469922
20
2.091652
30
0.0
0
VERTEX
100
AcDbVertex
100
AcDb2dVertex
8
Layer01
10
315.002979
20
2.093683
30
0.0
0
VERTEX
100
AcDbVertex
100
AcDb2dVertex
8
Layer01
10
315.535972
20
2.095707
30
0.0
0
VERTEX
100
AcDbVertex
100
AcDb2dVertex
8
Layer01
10
316.068965
20
2.097736
30
0.0
0
VERTEX
100
AcDbVertex
100
AcDb2dVertex
8
Layer01
10
316.601959
20
2.099785
30
0.0
0
VERTEX
100
AcDbVertex
100
AcDb2dVertex
8
Layer01
10
317.134952
20
2.101867
30
0.0
0
VERTEX
100
AcDbVertex
100
AcDb2dVertex
8
Layer01
10
317.667945
20
2.103996
30
0.0
0
VERTEX
100
AcDbVertex
100
AcDb2dVertex
8
Layer01
10
318.200938
20
2.106186
30
0.0
0
VERTEX
100
AcDbVertex
100
AcDb2dVertex
8
Layer01
10
318.733931
20
2.108449
30
0.0
0
VERTEX
100
AcDbVertex
100
AcDb2dVertex
8
Layer01
10
319.266924
20
2.110797
30
0.0
0
VERTEX
100
AcDbVertex
100
AcDb2dVertex
8
Layer01
10
319.799917
20
2.113238
30
0.0
0
VERTEX
100
AcDbVertex
100
AcDb2dVertex
8
Layer01
10
320.333006
20
2.115981
30
0.0
0
VERTEX
100
AcDbVertex
100
AcDb2dVertex
8
Layer01
10
320.865999
20
2.118817
30
0.0
0
VERTEX
100
AcDbVertex
100
AcDb2dVertex
8
Layer01
10
321.398992
20
2.121736
30
0.0
0
VERTEX
100
AcDbVertex
100
AcDb2dVertex
8
Layer01
10
321.931985
20
2.124725
30
0.0
0
VERTEX
100
AcDbVertex
100
AcDb2dVertex
8
Layer01
10
322.464978
20
2.127771
30
0.0
0
VERTEX
100
AcDbVertex
100
AcDb2dVertex
8
Layer01
10
322.997972
20
2.13086
30
0.0
0
VERTEX
100
AcDbVertex
100
AcDb2dVertex
8
Layer01
10
323.530965
20
2.133978
30
0.0
0
VERTEX
100
AcDbVertex
100
AcDb2dVertex
8
Layer01
10
324.063958
20
2.137109
30
0.0
0
VERTEX
100
AcDbVertex
100
AcDb2dVertex
8
Layer01
10
324.596951
20
2.140238
30
0.0
0
VERTEX
100
AcDbVertex
100
AcDb2dVertex
8
Layer01
10
325.129944
20
2.143353
30
0.0
0
VERTEX
100
AcDbVertex
100
AcDb2dVertex
8
Layer01
10
325.663001
20
2.146305
30
0.0
0
VERTEX
100
AcDbVertex
100
AcDb2dVertex
8
Layer01
10
326.195994
20
2.149226
30
0.0
0
VERTEX
100
AcDbVertex
100
AcDb2dVertex
8
Layer01
10
326.728987
20
2.152112
30
0.0
0
VERTEX
100
AcDbVertex
100
AcDb2dVertex
8
Layer01
10
327.26198
20
2.154962
30
0.0
0
VERTEX
100
AcDbVertex
100
AcDb2dVertex
8
Layer01
10
327.794973
20
2.157777
30
0.0
0
VERTEX
100
AcDbVertex
100
AcDb2dVertex
8
Layer01
10
328.327966
20
2.160557
30
0.0
0
VERTEX
100
AcDbVertex
100
AcDb2dVertex
8
Layer01
10
328.86096
20
2.163301
30
0.0
0
VERTEX
100
AcDbVertex
100
AcDb2dVertex
8
Layer01
10
329.393953
20
2.166011
30
0.0
0
VERTEX
100
AcDbVertex
100
AcDb2dVertex
8
Layer01
10
329.926946
20
2.168689
30
0.0
0
VERTEX
100
AcDbVertex
100
AcDb2dVertex
8
Layer01
10
330.459939
20
2.171335
30
0.0
0
VERTEX
100
AcDbVertex
100
AcDb2dVertex
8
Layer01
10
330.992996
20
2.173985
30
0.0
0
VERTEX
100
AcDbVertex
100
AcDb2dVertex
8
Layer01
10
331.525989
20
2.176604
30
0.0
0
VERTEX
100
AcDbVertex
100
AcDb2dVertex
8
Layer01
10
332.058982
20
2.179191
30
0.0
0
VERTEX
100
AcDbVertex
100
AcDb2dVertex
8
Layer01
10
332.591975
20
2.181746
30
0.0
0
VERTEX
100
AcDbVertex
100
AcDb2dVertex
8
Layer01
10
333.124968
20
2.184267
30
0.0
0
VERTEX
100
AcDbVertex
100
AcDb2dVertex
8
Layer01
10
333.657961
20
2.186753
30
0.0
0
VERTEX
100
AcDbVertex
100
AcDb2dVertex
8
Layer01
10
334.190955
20
2.189204
30
0.0
0
VERTEX
100
AcDbVertex
100
AcDb2dVertex
8
Layer01
10
334.723948
20
2.191618
30
0.0
0
VERTEX
100
AcDbVertex
100
AcDb2dVertex
8
Layer01
10
335.256941
20
2.193995
30
0.0
0
VERTEX
100
AcDbVertex
100
AcDb2dVertex
8
Layer01
10
335.789934
20
2.196333
30
0.0
0
VERTEX
100
AcDbVertex
100
AcDb2dVertex
8
Layer01
10
336.322991
20
2.198631
30
0.0
0
VERTEX
100
AcDbVertex
100
AcDb2dVertex
8
Layer01
10
336.855984
20
2.200888
30
0.0
0
VERTEX
100
AcDbVertex
100
AcDb2dVertex
8
Layer01
10
337.388977
20
2.203105
30
0.0
0
VERTEX
100
AcDbVertex
100
AcDb2dVertex
8
Layer01
10
337.92197
20
2.205278
30
0.0
0
VERTEX
100
AcDbVertex
100
AcDb2dVertex
8
Layer01
10
338.454963
20
2.207409
30
0.0
0
VERTEX
100
AcDbVertex
100
AcDb2dVertex
8
Layer01
10
338.987956
20
2.209496
30
0.0
0
VERTEX
100
AcDbVertex
100
AcDb2dVertex
8
Layer01
10
339.520949
20
2.211538
30
0.0
0
VERTEX
100
AcDbVertex
100
AcDb2dVertex
8
Layer01
10
340.053943
20
2.213535
30
0.0
0
VERTEX
100
AcDbVertex
100
AcDb2dVertex
8
Layer01
10
340.586936
20
2.215484
30
0.0
0
VERTEX
100
AcDbVertex
100
AcDb2dVertex
8
Layer01
10
341.119929
20
2.217386
30
0.0
0
VERTEX
100
AcDbVertex
100
AcDb2dVertex
8
Layer01
10
341.652986
20
2.219241
30
0.0
0
VERTEX
100
AcDbVertex
100
AcDb2dVertex
8
Layer01
10
342.185979
20
2.221046
30
0.0
0
VERTEX
100
AcDbVertex
100
AcDb2dVertex
8
Layer01
10
342.718972
20
2.222801
30
0.0
0
VERTEX
100
AcDbVertex
100
AcDb2dVertex
8
Layer01
10
343.251965
20
2.224504
30
0.0
0
VERTEX
100
AcDbVertex
100
AcDb2dVertex
8
Layer01
10
343.784958
20
2.226155
30
0.0
0
VERTEX
100
AcDbVertex
100
AcDb2dVertex
8
Layer01
10
344.317951
20
2.227752
30
0.0
0
VERTEX
100
AcDbVertex
100
AcDb2dVertex
8
Layer01
10
344.850944
20
2.229296
30
0.0
0
VERTEX
100
AcDbVertex
100
AcDb2dVertex
8
Layer01
10
345.383937
20
2.230784
30
0.0
0
VERTEX
100
AcDbVertex
100
AcDb2dVertex
8
Layer01
10
345.916931
20
2.232215
30
0.0
0
VERTEX
100
AcDbVertex
100
AcDb2dVertex
8
Layer01
10
346.449924
20
2.23359
30
0.0
0
VERTEX
100
AcDbVertex
100
AcDb2dVertex
8
Layer01
10
346.98298
20
2.234905
30
0.0
0
VERTEX
100
AcDbVertex
100
AcDb2dVertex
8
Layer01
10
347.515974
20
2.236161
30
0.0
0
VERTEX
100
AcDbVertex
100
AcDb2dVertex
8
Layer01
10
348.048967
20
2.237357
30
0.0
0
VERTEX
100
AcDbVertex
100
AcDb2dVertex
8
Layer01
10
348.58196
20
2.238493
30
0.0
0
VERTEX
100
AcDbVertex
100
AcDb2dVertex
8
Layer01
10
349.114953
20
2.239567
30
0.0
0
VERTEX
100
AcDbVertex
100
AcDb2dVertex
8
Layer01
10
349.647946
20
2.240578
30
0.0
0
VERTEX
100
AcDbVertex
100
AcDb2dVertex
8
Layer01
10
350.180939
20
2.241526
30
0.0
0
VERTEX
100
AcDbVertex
100
AcDb2dVertex
8
Layer01
10
350.713932
20
2.24241
30
0.0
0
VERTEX
100
AcDbVertex
100
AcDb2dVertex
8
Layer01
10
351.246926
20
2.24323
30
0.0
0
VERTEX
100
AcDbVertex
100
AcDb2dVertex
8
Layer01
10
351.779919
20
2.243983
30
0.0
0
VERTEX
100
AcDbVertex
100
AcDb2dVertex
8
Layer01
10
352.313007
20
2.244671
30
0.0
0
VERTEX
100
AcDbVertex
100
AcDb2dVertex
8
Layer01
10
352.846
20
2.245292
30
0.0
0
VERTEX
100
AcDbVertex
100
AcDb2dVertex
8
Layer01
10
353.378993
20
2.245844
30
0.0
0
VERTEX
100
AcDbVertex
100
AcDb2dVertex
8
Layer01
10
353.911987
20
2.246326
30
0.0
0
VERTEX
100
AcDbVertex
100
AcDb2dVertex
8
Layer01
10
354.44498
20
2.246739
30
0.0
0
VERTEX
100
AcDbVertex
100
AcDb2dVertex
8
Layer01
10
354.977973
20
2.24708
30
0.0
0
VERTEX
100
AcDbVertex
100
AcDb2dVertex
8
Layer01
10
355.510966
20
2.247349
30
0.0
0
VERTEX
100
AcDbVertex
100
AcDb2dVertex
8
Layer01
10
356.043959
20
2.247545
30
0.0
0
VERTEX
100
AcDbVertex
100
AcDb2dVertex
8
Layer01
10
356.576952
20
2.247667
30
0.0
0
VERTEX
100
AcDbVertex
100
AcDb2dVertex
8
Layer01
10
357.109945
20
2.247714
30
0.0
0
VERTEX
100
AcDbVertex
100
AcDb2dVertex
8
Layer01
10
357.643002
20
2.247685
30
0.0
0
VERTEX
100
AcDbVertex
100
AcDb2dVertex
8
Layer01
10
358.175995
20
2.247579
30
0.0
0
VERTEX
100
AcDbVertex
100
AcDb2dVertex
8
Layer01
10
358.708988
20
2.247396
30
0.0
0
VERTEX
100
AcDbVertex
100
AcDb2dVertex
8
Layer01
10
359.241981
20
2.247134
30
0.0
0
VERTEX
100
AcDbVertex
100
AcDb2dVertex
8
Layer01
10
359.774975
20
2.246793
30
0.0
0
VERTEX
100
AcDbVertex
100
AcDb2dVertex
8
Layer01
10
360.307968
20
2.246373
30
0.0
0
VERTEX
100
AcDbVertex
100
AcDb2dVertex
8
Layer01
10
360.840961
20
2.245872
30
0.0
0
VERTEX
100
AcDbVertex
100
AcDb2dVertex
8
Layer01
10
361.373954
20
2.245289
30
0.0
0
VERTEX
100
AcDbVertex
100
AcDb2dVertex
8
Layer01
10
361.906947
20
2.244624
30
0.0
0
VERTEX
100
AcDbVertex
100
AcDb2dVertex
8
Layer01
10
362.43994
20
2.243877
30
0.0
0
VERTEX
100
AcDbVertex
100
AcDb2dVertex
8
Layer01
10
362.972997
20
2.243025
30
0.0
0
VERTEX
100
AcDbVertex
100
AcDb2dVertex
8
Layer01
10
363.50599
20
2.24209
30
0.0
0
VERTEX
100
AcDbVertex
100
AcDb2dVertex
8
Layer01
10
364.038983
20
2.241073
30
0.0
0
VERTEX
100
AcDbVertex
100
AcDb2dVertex
8
Layer01
10
364.571976
20
2.239975
30
0.0
0
VERTEX
100
AcDbVertex
100
AcDb2dVertex
8
Layer01
10
365.10497
20
2.238795
30
0.0
0
VERTEX
100
AcDbVertex
100
AcDb2dVertex
8
Layer01
10
365.637963
20
2.237534
30
0.0
0
VERTEX
100
AcDbVertex
100
AcDb2dVertex
8
Layer01
10
366.170956
20
2.236192
30
0.0
0
VERTEX
100
AcDbVertex
100
AcDb2dVertex
8
Layer01
10
366.703949
20
2.234768
30
0.0
0
VERTEX
100
AcDbVertex
100
AcDb2dVertex
8
Layer01
10
367.236942
20
2.233262
30
0.0
0
VERTEX
100
AcDbVertex
100
AcDb2dVertex
8
Layer01
10
367.769935
20
2.231671
30
0.0
0
VERTEX
100
AcDbVertex
100
AcDb2dVertex
8
Layer01
10
368.302992
20
2.230079
30
0.0
0
VERTEX
100
AcDbVertex
100
AcDb2dVertex
8
Layer01
10
368.835985
20
2.228392
30
0.0
0
VERTEX
100
AcDbVertex
100
AcDb2dVertex
8
Layer01
10
369.368978
20
2.2266
30
0.0
0
VERTEX
100
AcDbVertex
100
AcDb2dVertex
8
Layer01
10
369.901971
20
2.224695
30
0.0
0
VERTEX
100
AcDbVertex
100
AcDb2dVertex
8
Layer01
10
370.434964
20
2.222666
30
0.0
0
VERTEX
100
AcDbVertex
100
AcDb2dVertex
8
Layer01
10
370.967958
20
2.220504
30
0.0
0
VERTEX
100
AcDbVertex
100
AcDb2dVertex
8
Layer01
10
371.500951
20
2.2182
30
0.0
0
VERTEX
100
AcDbVertex
100
AcDb2dVertex
8
Layer01
10
372.033944
20
2.215744
30
0.0
0
VERTEX
100
AcDbVertex
100
AcDb2dVertex
8
Layer01
10
372.566937
20
2.213131
30
0.0
0
VERTEX
100
AcDbVertex
100
AcDb2dVertex
8
Layer01
10
373.09993
20
2.210351
30
0.0
0
VERTEX
100
AcDbVertex
100
AcDb2dVertex
8
Layer01
10
373.632987
20
2.207273
30
0.0
0
VERTEX
100
AcDbVertex
100
AcDb2dVertex
8
Layer01
10
374.16598
20
2.204029
30
0.0
0
VERTEX
100
AcDbVertex
100
AcDb2dVertex
8
Layer01
10
374.698973
20
2.200625
30
0.0
0
VERTEX
100
AcDbVertex
100
AcDb2dVertex
8
Layer01
10
375.231966
20
2.197068
30
0.0
0
VERTEX
100
AcDbVertex
100
AcDb2dVertex
8
Layer01
10
375.764959
20
2.193366
30
0.0
0
VERTEX
100
AcDbVertex
100
AcDb2dVertex
8
Layer01
10
376.297952
20
2.189527
30
0.0
0
VERTEX
100
AcDbVertex
100
AcDb2dVertex
8
Layer01
10
376.830946
20
2.185562
30
0.0
0
VERTEX
100
AcDbVertex
100
AcDb2dVertex
8
Layer01
10
377.363939
20
2.181477
30
0.0
0
VERTEX
100
AcDbVertex
100
AcDb2dVertex
8
Layer01
10
377.896932
20
2.177283
30
0.0
0
VERTEX
100
AcDbVertex
100
AcDb2dVertex
8
Layer01
10
378.429925
20
2.172988
30
0.0
0
VERTEX
100
AcDbVertex
100
AcDb2dVertex
8
Layer01
10
378.962982
20
2.168684
30
0.0
0
VERTEX
100
AcDbVertex
100
AcDb2dVertex
8
Layer01
10
379.495975
20
2.164289
30
0.0
0
VERTEX
100
AcDbVertex
100
AcDb2dVertex
8
Layer01
10
380.028968
20
2.159804
30
0.0
0
VERTEX
100
AcDbVertex
100
AcDb2dVertex
8
Layer01
10
380.561961
20
2.155229
30
0.0
0
VERTEX
100
AcDbVertex
100
AcDb2dVertex
8
Layer01
10
381.094954
20
2.150564
30
0.0
0
VERTEX
100
AcDbVertex
100
AcDb2dVertex
8
Layer01
10
381.627947
20
2.145809
30
0.0
0
VERTEX
100
AcDbVertex
100
AcDb2dVertex
8
Layer01
10
382.160941
20
2.140964
30
0.0
0
VERTEX
100
AcDbVertex
100
AcDb2dVertex
8
Layer01
10
382.693934
20
2.136026
30
0.0
0
VERTEX
100
AcDbVertex
100
AcDb2dVertex
8
Layer01
10
383.226927
20
2.130996
30
0.0
0
VERTEX
100
AcDbVertex
100
AcDb2dVertex
8
Layer01
10
383.75992
20
2.125871
30
0.0
0
VERTEX
100
AcDbVertex
100
AcDb2dVertex
8
Layer01
10
384.293008
20
2.120631
30
0.0
0
VERTEX
100
AcDbVertex
100
AcDb2dVertex
8
Layer01
10
384.826002
20
2.115296
30
0.0
0
VERTEX
100
AcDbVertex
100
AcDb2dVertex
8
Layer01
10
385.358995
20
2.109866
30
0.0
0
VERTEX
100
AcDbVertex
100
AcDb2dVertex
8
Layer01
10
385.891988
20
2.104342
30
0.0
0
VERTEX
100
AcDbVertex
100
AcDb2dVertex
8
Layer01
10
386.424981
20
2.098722
30
0.0
0
VERTEX
100
AcDbVertex
100
AcDb2dVertex
8
Layer01
10
386.957974
20
2.093009
30
0.0
0
VERTEX
100
AcDbVertex
100
AcDb2dVertex
8
Layer01
10
387.490967
20
2.087201
30
0.0
0
VERTEX
100
AcDbVertex
100
AcDb2dVertex
8
Layer01
10
388.02396
20
2.081299
30
0.0
0
VERTEX
100
AcDbVertex
100
AcDb2dVertex
8
Layer01
10
388.556953
20
2.075303
30
0.0
0
VERTEX
100
AcDbVertex
100
AcDb2dVertex
8
Layer01
10
389.089947
20
2.069213
30
0.0
0
VERTEX
100
AcDbVertex
100
AcDb2dVertex
8
Layer01
10
389.623003
20
2.06303
30
0.0
0
VERTEX
100
AcDbVertex
100
AcDb2dVertex
8
Layer01
10
390.155996
20
2.056754
30
0.0
0
VERTEX
100
AcDbVertex
100
AcDb2dVertex
8
Layer01
10
390.68899
20
2.050386
30
0.0
0
VERTEX
100
AcDbVertex
100
AcDb2dVertex
8
Layer01
10
391.221983
20
2.043925
30
0.0
0
VERTEX
100
AcDbVertex
100
AcDb2dVertex
8
Layer01
10
391.754976
20
2.037371
30
0.0
0
VERTEX
100
AcDbVertex
100
AcDb2dVertex
8
Layer01
10
392.287969
20
2.030725
30
0.0
0
VERTEX
100
AcDbVertex
100
AcDb2dVertex
8
Layer01
10
392.820962
20
2.023988
30
0.0
0
VERTEX
100
AcDbVertex
100
AcDb2dVertex
8
Layer01
10
393.353955
20
2.017159
30
0.0
0
VERTEX
100
AcDbVertex
100
AcDb2dVertex
8
Layer01
10
393.886948
20
2.010239
30
0.0
0
VERTEX
100
AcDbVertex
100
AcDb2dVertex
8
Layer01
10
394.419942
20
2.003228
30
0.0
0
VERTEX
100
AcDbVertex
100
AcDb2dVertex
8
Layer01
10
394.952998
20
1.996124
30
0.0
0
VERTEX
100
AcDbVertex
100
AcDb2dVertex
8
Layer01
10
395.485991
20
1.98893
30
0.0
0
VERTEX
100
AcDbVertex
100
AcDb2dVertex
8
Layer01
10
396.018984
20
1.981648
30
0.0
0
VERTEX
100
AcDbVertex
100
AcDb2dVertex
8
Layer01
10
396.551978
20
1.974277
30
0.0
0
VERTEX
100
AcDbVertex
100
AcDb2dVertex
8
Layer01
10
397.084971
20
1.966819
30
0.0
0
VERTEX
100
AcDbVertex
100
AcDb2dVertex
8
Layer01
10
397.617964
20
1.959273
30
0.0
0
VERTEX
100
AcDbVertex
100
AcDb2dVertex
8
Layer01
10
398.150957
20
1.951642
30
0.0
0
VERTEX
100
AcDbVertex
100
AcDb2dVertex
8
Layer01
10
398.68395
20
1.943924
30
0.0
0
VERTEX
100
AcDbVertex
100
AcDb2dVertex
8
Layer01
10
399.216943
20
1.936122
30
0.0
0
VERTEX
100
AcDbVertex
100
AcDb2dVertex
8
Layer01
10
399.749936
20
1.928235
30
0.0
0
VERTEX
100
AcDbVertex
100
AcDb2dVertex
8
Layer01
10
400.282993
20
1.920267
30
0.0
0
VERTEX
100
AcDbVertex
100
AcDb2dVertex
8
Layer01
10
400.815986
20
1.912218
30
0.0
0
VERTEX
100
AcDbVertex
100
AcDb2dVertex
8
Layer01
10
401.348979
20
1.904085
30
0.0
0
VERTEX
100
AcDbVertex
100
AcDb2dVertex
8
Layer01
10
401.881973
20
1.89587
30
0.0
0
VERTEX
100
AcDbVertex
100
AcDb2dVertex
8
Layer01
10
402.414966
20
1.887573
30
0.0
0
VERTEX
100
AcDbVertex
100
AcDb2dVertex
8
Layer01
10
402.947959
20
1.879195
30
0.0
0
VERTEX
100
AcDbVertex
100
AcDb2dVertex
8
Layer01
10
403.480952
20
1.870735
30
0.0
0
VERTEX
100
AcDbVertex
100
AcDb2dVertex
8
Layer01
10
404.013945
20
1.862195
30
0.0
0
VERTEX
100
AcDbVertex
100
AcDb2dVertex
8
Layer01
10
404.546938
20
1.853574
30
0.0
0
VERTEX
100
AcDbVertex
100
AcDb2dVertex
8
Layer01
10
405.079931
20
1.844874
30
0.0
0
VERTEX
100
AcDbVertex
100
AcDb2dVertex
8
Layer01
10
405.612988
20
1.83609
30
0.0
0
VERTEX
100
AcDbVertex
100
AcDb2dVertex
8
Layer01
10
406.145981
20
1.827228
30
0.0
0
VERTEX
100
AcDbVertex
100
AcDb2dVertex
8
Layer01
10
406.678974
20
1.818289
30
0.0
0
VERTEX
100
AcDbVertex
100
AcDb2dVertex
8
Layer01
10
407.211967
20
1.809273
30
0.0
0
VERTEX
100
AcDbVertex
100
AcDb2dVertex
8
Layer01
10
407.744961
20
1.800181
30
0.0
0
VERTEX
100
AcDbVertex
100
AcDb2dVertex
8
Layer01
10
408.277954
20
1.791015
30
0.0
0
VERTEX
100
AcDbVertex
100
AcDb2dVertex
8
Layer01
10
408.810947
20
1.781776
30
0.0
0
VERTEX
100
AcDbVertex
100
AcDb2dVertex
8
Layer01
10
409.34394
20
1.772463
30
0.0
0
VERTEX
100
AcDbVertex
100
AcDb2dVertex
8
Layer01
10
409.876933
20
1.763079
30
0.0
0
VERTEX
100
AcDbVertex
100
AcDb2dVertex
8
Layer01
10
410.409926
20
1.753625
30
0.0
0
VERTEX
100
AcDbVertex
100
AcDb2dVertex
8
Layer01
10
410.942983
20
1.744103
30
0.0
0
VERTEX
100
AcDbVertex
100
AcDb2dVertex
8
Layer01
10
411.475976
20
1.734513
30
0.0
0
VERTEX
100
AcDbVertex
100
AcDb2dVertex
8
Layer01
10
412.008969
20
1.724855
30
0.0
0
VERTEX
100
AcDbVertex
100
AcDb2dVertex
8
Layer01
10
412.541962
20
1.715129
30
0.0
0
VERTEX
100
AcDbVertex
100
AcDb2dVertex
8
Layer01
10
413.074956
20
1.705337
30
0.0
0
VERTEX
100
AcDbVertex
100
AcDb2dVertex
8
Layer01
10
413.607949
20
1.695478
30
0.0
0
VERTEX
100
AcDbVertex
100
AcDb2dVertex
8
Layer01
10
414.140942
20
1.685553
30
0.0
0
VERTEX
100
AcDbVertex
100
AcDb2dVertex
8
Layer01
10
414.673935
20
1.675564
30
0.0
0
VERTEX
100
AcDbVertex
100
AcDb2dVertex
8
Layer01
10
415.206928
20
1.66551
30
0.0
0
VERTEX
100
AcDbVertex
100
AcDb2dVertex
8
Layer01
10
415.739921
20
1.655393
30
0.0
0
VERTEX
100
AcDbVertex
100
AcDb2dVertex
8
Layer01
10
416.272978
20
1.645239
30
0.0
0
VERTEX
100
AcDbVertex
100
AcDb2dVertex
8
Layer01
10
416.805971
20
1.635023
30
0.0
0
VERTEX
100
AcDbVertex
100
AcDb2dVertex
8
Layer01
10
417.338964
20
1.624741
30
0.0
0
VERTEX
100
AcDbVertex
100
AcDb2dVertex
8
Layer01
10
417.871957
20
1.614394
30
0.0
0
VERTEX
100
AcDbVertex
100
AcDb2dVertex
8
Layer01
10
418.40495
20
1.60398
30
0.0
0
VERTEX
100
AcDbVertex
100
AcDb2dVertex
8
Layer01
10
418.937944
20
1.5935
30
0.0
0
VERTEX
100
AcDbVertex
100
AcDb2dVertex
8
Layer01
10
419.470937
20
1.582953
30
0.0
0
VERTEX
100
AcDbVertex
100
AcDb2dVertex
8
Layer01
10
420.00393
20
1.57234
30
0.0
0
VERTEX
100
AcDbVertex
100
AcDb2dVertex
8
Layer01
10
420.536923
20
1.561664
30
0.0
0
VERTEX
100
AcDbVertex
100
AcDb2dVertex
8
Layer01
10
421.069916
20
1.550925
30
0.0
0
VERTEX
100
AcDbVertex
100
AcDb2dVertex
8
Layer01
10
421.603005
20
1.540015
30
0.0
0
VERTEX
100
AcDbVertex
100
AcDb2dVertex
8
Layer01
10
422.135998
20
1.52906
30
0.0
0
VERTEX
100
AcDbVertex
100
AcDb2dVertex
8
Layer01
10
422.668991
20
1.518072
30
0.0
0
VERTEX
100
AcDbVertex
100
AcDb2dVertex
8
Layer01
10
423.201984
20
1.507064
30
0.0
0
VERTEX
100
AcDbVertex
100
AcDb2dVertex
8
Layer01
10
423.734977
20
1.49605
30
0.0
0
VERTEX
100
AcDbVertex
100
AcDb2dVertex
8
Layer01
10
424.26797
20
1.485043
30
0.0
0
VERTEX
100
AcDbVertex
100
AcDb2dVertex
8
Layer01
10
424.800963
20
1.474056
30
0.0
0
VERTEX
100
AcDbVertex
100
AcDb2dVertex
8
Layer01
10
425.333957
20
1.463102
30
0.0
0
VERTEX
100
AcDbVertex
100
AcDb2dVertex
8
Layer01
10
425.86695
20
1.452193
30
0.0
0
VERTEX
100
AcDbVertex
100
AcDb2dVertex
8
Layer01
10
426.399943
20
1.44134
30
0.0
0
VERTEX
100
AcDbVertex
100
AcDb2dVertex
8
Layer01
10
426.932999
20
1.430701
30
0.0
0
VERTEX
100
AcDbVertex
100
AcDb2dVertex
8
Layer01
10
427.465993
20
1.420126
30
0.0
0
VERTEX
100
AcDbVertex
100
AcDb2dVertex
8
Layer01
10
427.998986
20
1.409607
30
0.0
0
VERTEX
100
AcDbVertex
100
AcDb2dVertex
8
Layer01
10
428.531979
20
1.399139
30
0.0
0
VERTEX
100
AcDbVertex
100
AcDb2dVertex
8
Layer01
10
429.064972
20
1.388715
30
0.0
0
VERTEX
100
AcDbVertex
100
AcDb2dVertex
8
Layer01
10
429.597965
20
1.378328
30
0.0
0
VERTEX
100
AcDbVertex
100
AcDb2dVertex
8
Layer01
10
430.130958
20
1.367969
30
0.0
0
VERTEX
100
AcDbVertex
100
AcDb2dVertex
8
Layer01
10
430.663951
20
1.35763
30
0.0
0
VERTEX
100
AcDbVertex
100
AcDb2dVertex
8
Layer01
10
431.196945
20
1.347303
30
0.0
0
VERTEX
100
AcDbVertex
100
AcDb2dVertex
8
Layer01
10
431.729938
20
1.336978
30
0.0
0
VERTEX
100
AcDbVertex
100
AcDb2dVertex
8
Layer01
10
432.262994
20
1.32656
30
0.0
0
VERTEX
100
AcDbVertex
100
AcDb2dVertex
8
Layer01
10
432.795988
20
1.316138
30
0.0
0
VERTEX
100
AcDbVertex
100
AcDb2dVertex
8
Layer01
10
433.328981
20
1.305709
30
0.0
0
VERTEX
100
AcDbVertex
100
AcDb2dVertex
8
Layer01
10
433.861974
20
1.295273
30
0.0
0
VERTEX
100
AcDbVertex
100
AcDb2dVertex
8
Layer01
10
434.394967
20
1.284832
30
0.0
0
VERTEX
100
AcDbVertex
100
AcDb2dVertex
8
Layer01
10
434.92796
20
1.274385
30
0.0
0
VERTEX
100
AcDbVertex
100
AcDb2dVertex
8
Layer01
10
435.460953
20
1.263933
30
0.0
0
VERTEX
100
AcDbVertex
100
AcDb2dVertex
8
Layer01
10
435.993946
20
1.253478
30
0.0
0
VERTEX
100
AcDbVertex
100
AcDb2dVertex
8
Layer01
10
436.52694
20
1.243022
30
0.0
0
VERTEX
100
AcDbVertex
100
AcDb2dVertex
8
Layer01
10
437.059933
20
1.232564
30
0.0
0
VERTEX
100
AcDbVertex
100
AcDb2dVertex
8
Layer01
10
437.592989
20
1.222124
30
0.0
0
VERTEX
100
AcDbVertex
100
AcDb2dVertex
8
Layer01
10
438.125982
20
1.211687
30
0.0
0
VERTEX
100
AcDbVertex
100
AcDb2dVertex
8
Layer01
10
438.658976
20
1.20125
30
0.0
0
VERTEX
100
AcDbVertex
100
AcDb2dVertex
8
Layer01
10
439.191969
20
1.190813
30
0.0
0
VERTEX
100
AcDbVertex
100
AcDb2dVertex
8
Layer01
10
439.724962
20
1.180377
30
0.0
0
VERTEX
100
AcDbVertex
100
AcDb2dVertex
8
Layer01
10
440.257955
20
1.169942
30
0.0
0
VERTEX
100
AcDbVertex
100
AcDb2dVertex
8
Layer01
10
440.790948
20
1.159507
30
0.0
0
VERTEX
100
AcDbVertex
100
AcDb2dVertex
8
Layer01
10
441.323941
20
1.149072
30
0.0
0
VERTEX
100
AcDbVertex
100
AcDb2dVertex
8
Layer01
10
441.856934
20
1.138637
30
0.0
0
VERTEX
100
AcDbVertex
100
AcDb2dVertex
8
Layer01
10
442.389928
20
1.128203
30
0.0
0
VERTEX
100
AcDbVertex
100
AcDb2dVertex
8
Layer01
10
442.922984
20
1.117767
30
0.0
0
VERTEX
100
AcDbVertex
100
AcDb2dVertex
8
Layer01
10
443.455977
20
1.107332
30
0.0
0
VERTEX
100
AcDbVertex
100
AcDb2dVertex
8
Layer01
10
443.988971
20
1.096897
30
0.0
0
VERTEX
100
AcDbVertex
100
AcDb2dVertex
8
Layer01
10
444.521964
20
1.086462
30
0.0
0
VERTEX
100
AcDbVertex
100
AcDb2dVertex
8
Layer01
10
445.054957
20
1.076026
30
0.0
0
VERTEX
100
AcDbVertex
100
AcDb2dVertex
8
Layer01
10
445.58795
20
1.065591
30
0.0
0
VERTEX
100
AcDbVertex
100
AcDb2dVertex
8
Layer01
10
446.120943
20
1.055154
30
0.0
0
VERTEX
100
AcDbVertex
100
AcDb2dVertex
8
Layer01
10
446.653936
20
1.044717
30
0.0
0
VERTEX
100
AcDbVertex
100
AcDb2dVertex
8
Layer01
10
447.186929
20
1.034279
30
0.0
0
VERTEX
100
AcDbVertex
100
AcDb2dVertex
8
Layer01
10
447.719922
20
1.023841
30
0.0
0
VERTEX
100
AcDbVertex
100
AcDb2dVertex
8
Layer01
10
448.252979
20
1.013399
30
0.0
0
VERTEX
100
AcDbVertex
100
AcDb2dVertex
8
Layer01
10
448.785972
20
1.002958
30
0.0
0
VERTEX
100
AcDbVertex
100
AcDb2dVertex
8
Layer01
10
449.318965
20
0.992517
30
0.0
0
VERTEX
100
AcDbVertex
100
AcDb2dVertex
8
Layer01
10
449.851959
20
0.982075
30
0.0
0
VERTEX
100
AcDbVertex
100
AcDb2dVertex
8
Layer01
10
450.384952
20
0.971633
30
0.0
0
VERTEX
100
AcDbVertex
100
AcDb2dVertex
8
Layer01
10
450.917945
20
0.961191
30
0.0
0
VERTEX
100
AcDbVertex
100
AcDb2dVertex
8
Layer01
10
451.450938
20
0.95075
30
0.0
0
VERTEX
100
AcDbVertex
100
AcDb2dVertex
8
Layer01
10
451.983931
20
0.940308
30
0.0
0
VERTEX
100
AcDbVertex
100
AcDb2dVertex
8
Layer01
10
452.516924
20
0.929867
30
0.0
0
VERTEX
100
AcDbVertex
100
AcDb2dVertex
8
Layer01
10
453.049917
20
0.919427
30
0.0
0
VERTEX
100
AcDbVertex
100
AcDb2dVertex
8
Layer01
10
453.583006
20
0.908986
30
0.0
0
VERTEX
100
AcDbVertex
100
AcDb2dVertex
8
Layer01
10
454.115999
20
0.898549
30
0.0
0
VERTEX
100
AcDbVertex
100
AcDb2dVertex
8
Layer01
10
454.648992
20
0.888112
30
0.0
0
VERTEX
100
AcDbVertex
100
AcDb2dVertex
8
Layer01
10
455.181985
20
0.877675
30
0.0
0
VERTEX
100
AcDbVertex
100
AcDb2dVertex
8
Layer01
10
455.714978
20
0.86724
30
0.0
0
VERTEX
100
AcDbVertex
100
AcDb2dVertex
8
Layer01
10
456.247972
20
0.856804
30
0.0
0
VERTEX
100
AcDbVertex
100
AcDb2dVertex
8
Layer01
10
456.780965
20
0.846369
30
0.0
0
VERTEX
100
AcDbVertex
100
AcDb2dVertex
8
Layer01
10
457.313958
20
0.835934
30
0.0
0
VERTEX
100
AcDbVertex
100
AcDb2dVertex
8
Layer01
10
457.846951
20
0.825499
30
0.0
0
VERTEX
100
AcDbVertex
100
AcDb2dVertex
8
Layer01
10
458.379944
20
0.815065
30
0.0
0
VERTEX
100
AcDbVertex
100
AcDb2dVertex
8
Layer01
10
458.913001
20
0.804629
30
0.0
0
VERTEX
100
AcDbVertex
100
AcDb2dVertex
8
Layer01
10
459.445994
20
0.794194
30
0.0
0
VERTEX
100
AcDbVertex
100
AcDb2dVertex
8
Layer01
10
459.978987
20
0.783759
30
0.0
0
VERTEX
100
AcDbVertex
100
AcDb2dVertex
8
Layer01
10
460.51198
20
0.773324
30
0.0
0
VERTEX
100
AcDbVertex
100
AcDb2dVertex
8
Layer01
10
461.044973
20
0.762889
30
0.0
0
VERTEX
100
AcDbVertex
100
AcDb2dVertex
8
Layer01
10
461.577966
20
0.752453
30
0.0
0
VERTEX
100
AcDbVertex
100
AcDb2dVertex
8
Layer01
10
462.11096
20
0.742016
30
0.0
0
VERTEX
100
AcDbVertex
100
AcDb2dVertex
8
Layer01
10
462.643953
20
0.731579
30
0.0
0
VERTEX
100
AcDbVertex
100
AcDb2dVertex
8
Layer01
10
463.176946
20
0.721142
30
0.0
0
VERTEX
100
AcDbVertex
100
AcDb2dVertex
8
Layer01
10
463.709939
20
0.710703
30
0.0
0
VERTEX
100
AcDbVertex
100
AcDb2dVertex
8
Layer01
10
464.242996
20
0.700262
30
0.0
0
VERTEX
100
AcDbVertex
100
AcDb2dVertex
8
Layer01
10
464.775989
20
0.689821
30
0.0
0
VERTEX
100
AcDbVertex
100
AcDb2dVertex
8
Layer01
10
465.308982
20
0.679379
30
0.0
0
VERTEX
100
AcDbVertex
100
AcDb2dVertex
8
Layer01
10
465.841975
20
0.668937
30
0.0
0
VERTEX
100
AcDbVertex
100
AcDb2dVertex
8
Layer01
10
466.374968
20
0.658495
30
0.0
0
VERTEX
100
AcDbVertex
100
AcDb2dVertex
8
Layer01
10
466.907961
20
0.648054
30
0.0
0
VERTEX
100
AcDbVertex
100
AcDb2dVertex
8
Layer01
10
467.440955
20
0.637612
30
0.0
0
VERTEX
100
AcDbVertex
100
AcDb2dVertex
8
Layer01
10
467.973948
20
0.62717
30
0.0
0
VERTEX
100
AcDbVertex
100
AcDb2dVertex
8
Layer01
10
468.506941
20
0.616729
30
0.0
0
VERTEX
100
AcDbVertex
100
AcDb2dVertex
8
Layer01
10
469.039934
20
0.606289
30
0.0
0
VERTEX
100
AcDbVertex
100
AcDb2dVertex
8
Layer01
10
469.572991
20
0.59591
30
0.0
0
VERTEX
100
AcDbVertex
100
AcDb2dVertex
8
Layer01
10
470.105984
20
0.585528
30
0.0
0
VERTEX
100
AcDbVertex
100
AcDb2dVertex
8
Layer01
10
470.638977
20
0.575138
30
0.0
0
VERTEX
100
AcDbVertex
100
AcDb2dVertex
8
Layer01
10
471.17197
20
0.564736
30
0.0
0
VERTEX
100
AcDbVertex
100
AcDb2dVertex
8
Layer01
10
471.704963
20
0.554318
30
0.0
0
VERTEX
100
AcDbVertex
100
AcDb2dVertex
8
Layer01
10
472.237956
20
0.543881
30
0.0
0
VERTEX
100
AcDbVertex
100
AcDb2dVertex
8
Layer01
10
472.770949
20
0.533424
30
0.0
0
VERTEX
100
AcDbVertex
100
AcDb2dVertex
8
Layer01
10
473.303943
20
0.522945
30
0.0
0
VERTEX
100
AcDbVertex
100
AcDb2dVertex
8
Layer01
10
473.836936
20
0.512446
30
0.0
0
VERTEX
100
AcDbVertex
100
AcDb2dVertex
8
Layer01
10
474.369929
20
0.501928
30
0.0
0
VERTEX
100
AcDbVertex
100
AcDb2dVertex
8
Layer01
10
474.902986
20
0.491263
30
0.0
0
VERTEX
100
AcDbVertex
100
AcDb2dVertex
8
Layer01
10
475.435979
20
0.480601
30
0.0
0
VERTEX
100
AcDbVertex
100
AcDb2dVertex
8
Layer01
10
475.968972
20
0.469955
30
0.0
0
VERTEX
100
AcDbVertex
100
AcDb2dVertex
8
Layer01
10
476.501965
20
0.459344
30
0.0
0
VERTEX
100
AcDbVertex
100
AcDb2dVertex
8
Layer01
10
477.034958
20
0.448788
30
0.0
0
VERTEX
100
AcDbVertex
100
AcDb2dVertex
8
Layer01
10
477.567951
20
0.438307
30
0.0
0
VERTEX
100
AcDbVertex
100
AcDb2dVertex
8
Layer01
10
478.100944
20
0.427922
30
0.0
0
VERTEX
100
AcDbVertex
100
AcDb2dVertex
8
Layer01
10
478.633937
20
0.417655
30
0.0
0
VERTEX
100
AcDbVertex
100
AcDb2dVertex
8
Layer01
10
479.166931
20
0.407529
30
0.0
0
VERTEX
100
AcDbVertex
100
AcDb2dVertex
8
Layer01
10
479.699924
20
0.397566
30
0.0
0
VERTEX
100
AcDbVertex
100
AcDb2dVertex
8
Layer01
10
480.23298
20
0.387784
30
0.0
0
VERTEX
100
AcDbVertex
100
AcDb2dVertex
8
Layer01
10
480.765974
20
0.378211
30
0.0
0
VERTEX
100
AcDbVertex
100
AcDb2dVertex
8
Layer01
10
481.298967
20
0.368868
30
0.0
0
VERTEX
100
AcDbVertex
100
AcDb2dVertex
8
Layer01
10
481.83196
20
0.359775
30
0.0
0
VERTEX
100
AcDbVertex
100
AcDb2dVertex
8
Layer01
10
482.364953
20
0.350954
30
0.0
0
VERTEX
100
AcDbVertex
100
AcDb2dVertex
8
Layer01
10
482.897946
20
0.342423
30
0.0
0
VERTEX
100
AcDbVertex
100
AcDb2dVertex
8
Layer01
10
483.430939
20
0.334201
30
0.0
0
VERTEX
100
AcDbVertex
100
AcDb2dVertex
8
Layer01
10
483.963932
20
0.326303
30
0.0
0
VERTEX
100
AcDbVertex
100
AcDb2dVertex
8
Layer01
10
484.496926
20
0.318745
30
0.0
0
VERTEX
100
AcDbVertex
100
AcDb2dVertex
8
Layer01
10
485.029919
20
0.31154
30
0.0
0
VERTEX
100
AcDbVertex
100
AcDb2dVertex
8
Layer01
10
485.563007
20
0.304894
30
0.0
0
VERTEX
100
AcDbVertex
100
AcDb2dVertex
8
Layer01
10
486.096
20
0.298605
30
0.0
0
VERTEX
100
AcDbVertex
100
AcDb2dVertex
8
Layer01
10
486.628993
20
0.292663
30
0.0
0
VERTEX
100
AcDbVertex
100
AcDb2dVertex
8
Layer01
10
487.161987
20
0.287057
30
0.0
0
VERTEX
100
AcDbVertex
100
AcDb2dVertex
8
Layer01
10
487.69498
20
0.281776
30
0.0
0
VERTEX
100
AcDbVertex
100
AcDb2dVertex
8
Layer01
10
488.227973
20
0.276807
30
0.0
0
VERTEX
100
AcDbVertex
100
AcDb2dVertex
8
Layer01
10
488.760966
20
0.272136
30
0.0
0
VERTEX
100
AcDbVertex
100
AcDb2dVertex
8
Layer01
10
489.293959
20
0.26775
30
0.0
0
VERTEX
100
AcDbVertex
100
AcDb2dVertex
8
Layer01
10
489.826952
20
0.263637
30
0.0
0
VERTEX
100
AcDbVertex
100
AcDb2dVertex
8
Layer01
10
490.359945
20
0.259785
30
0.0
0
VERTEX
100
AcDbVertex
100
AcDb2dVertex
8
Layer01
10
490.893002
20
0.256008
30
0.0
0
VERTEX
100
AcDbVertex
100
AcDb2dVertex
8
Layer01
10
491.425995
20
0.252485
30
0.0
0
VERTEX
100
AcDbVertex
100
AcDb2dVertex
8
Layer01
10
491.958988
20
0.249218
30
0.0
0
VERTEX
100
AcDbVertex
100
AcDb2dVertex
8
Layer01
10
492.491981
20
0.246215
30
0.0
0
VERTEX
100
AcDbVertex
100
AcDb2dVertex
8
Layer01
10
493.024975
20
0.24348
30
0.0
0
VERTEX
100
AcDbVertex
100
AcDb2dVertex
8
Layer01
10
493.557968
20
0.241023
30
0.0
0
VERTEX
100
AcDbVertex
100
AcDb2dVertex
8
Layer01
10
494.090961
20
0.238852
30
0.0
0
VERTEX
100
AcDbVertex
100
AcDb2dVertex
8
Layer01
10
494.623954
20
0.236976
30
0.0
0
VERTEX
100
AcDbVertex
100
AcDb2dVertex
8
Layer01
10
495.156947
20
0.235404
30
0.0
0
VERTEX
100
AcDbVertex
100
AcDb2dVertex
8
Layer01
10
495.68994
20
0.234147
30
0.0
0
VERTEX
100
AcDbVertex
100
AcDb2dVertex
8
Layer01
10
496.222997
20
0.233259
30
0.0
0
VERTEX
100
AcDbVertex
100
AcDb2dVertex
8
Layer01
10
496.75599
20
0.232703
30
0.0
0
VERTEX
100
AcDbVertex
100
AcDb2dVertex
8
Layer01
10
497.288983
20
0.232486
30
0.0
0
VERTEX
100
AcDbVertex
100
AcDb2dVertex
8
Layer01
10
497.821976
20
0.232615
30
0.0
0
VERTEX
100
AcDbVertex
100
AcDb2dVertex
8
Layer01
10
498.35497
20
0.233098
30
0.0
0
VERTEX
100
AcDbVertex
100
AcDb2dVertex
8
Layer01
10
498.887963
20
0.233941
30
0.0
0
VERTEX
100
AcDbVertex
100
AcDb2dVertex
8
Layer01
10
499.420956
20
0.235153
30
0.0
0
VERTEX
100
AcDbVertex
100
AcDb2dVertex
8
Layer01
10
499.953949
20
0.236741
30
0.0
0
VERTEX
100
AcDbVertex
100
AcDb2dVertex
8
Layer01
10
500.486942
20
0.238713
30
0.0
0
VERTEX
100
AcDbVertex
100
AcDb2dVertex
8
Layer01
10
501.019935
20
0.241076
30
0.0
0
VERTEX
100
AcDbVertex
100
AcDb2dVertex
8
Layer01
10
501.552992
20
0.24384
30
0.0
0
VERTEX
100
AcDbVertex
100
AcDb2dVertex
8
Layer01
10
502.085985
20
0.24701
30
0.0
0
VERTEX
100
AcDbVertex
100
AcDb2dVertex
8
Layer01
10
502.618978
20
0.250596
30
0.0
0
VERTEX
100
AcDbVertex
100
AcDb2dVertex
8
Layer01
10
503.151971
20
0.254604
30
0.0
0
VERTEX
100
AcDbVertex
100
AcDb2dVertex
8
Layer01
10
503.684964
20
0.259042
30
0.0
0
VERTEX
100
AcDbVertex
100
AcDb2dVertex
8
Layer01
10
504.217958
20
0.263919
30
0.0
0
VERTEX
100
AcDbVertex
100
AcDb2dVertex
8
Layer01
10
504.750951
20
0.269243
30
0.0
0
VERTEX
100
AcDbVertex
100
AcDb2dVertex
8
Layer01
10
505.283944
20
0.275022
30
0.0
0
VERTEX
100
AcDbVertex
100
AcDb2dVertex
8
Layer01
10
505.816937
20
0.281265
30
0.0
0
VERTEX
100
AcDbVertex
100
AcDb2dVertex
8
Layer01
10
506.34993
20
0.287979
30
0.0
0
VERTEX
100
AcDbVertex
100
AcDb2dVertex
8
Layer01
10
506.882987
20
0.295173
30
0.0
0
VERTEX
100
AcDbVertex
100
AcDb2dVertex
8
Layer01
10
507.41598
20
0.302855
30
0.0
0
VERTEX
100
AcDbVertex
100
AcDb2dVertex
8
Layer01
10
507.948973
20
0.311036
30
0.0
0
VERTEX
100
AcDbVertex
100
AcDb2dVertex
8
Layer01
10
508.481966
20
0.319723
30
0.0
0
VERTEX
100
AcDbVertex
100
AcDb2dVertex
8
Layer01
10
509.014959
20
0.328927
30
0.0
0
VERTEX
100
AcDbVertex
100
AcDb2dVertex
8
Layer01
10
509.547952
20
0.338656
30
0.0
0
VERTEX
100
AcDbVertex
100
AcDb2dVertex
8
Layer01
10
510.080946
20
0.348919
30
0.0
0
VERTEX
100
AcDbVertex
100
AcDb2dVertex
8
Layer01
10
510.613939
20
0.359727
30
0.0
0
VERTEX
100
AcDbVertex
100
AcDb2dVertex
8
Layer01
10
511.146932
20
0.371088
30
0.0
0
VERTEX
100
AcDbVertex
100
AcDb2dVertex
8
Layer01
10
511.679925
20
0.383012
30
0.0
0
VERTEX
100
AcDbVertex
100
AcDb2dVertex
8
Layer01
10
512.212982
20
0.395512
30
0.0
0
VERTEX
100
AcDbVertex
100
AcDb2dVertex
8
Layer01
10
512.745975
20
0.408592
30
0.0
0
VERTEX
100
AcDbVertex
100
AcDb2dVertex
8
Layer01
10
513.278968
20
0.422265
30
0.0
0
VERTEX
100
AcDbVertex
100
AcDb2dVertex
8
Layer01
10
513.811961
20
0.436539
30
0.0
0
VERTEX
100
AcDbVertex
100
AcDb2dVertex
8
Layer01
10
514.344954
20
0.451426
30
0.0
0
VERTEX
100
AcDbVertex
100
AcDb2dVertex
8
Layer01
10
514.877947
20
0.466935
30
0.0
0
VERTEX
100
AcDbVertex
100
AcDb2dVertex
8
Layer01
10
515.410941
20
0.483076
30
0.0
0
VERTEX
100
AcDbVertex
100
AcDb2dVertex
8
Layer01
10
515.943934
20
0.49986
30
0.0
0
VERTEX
100
AcDbVertex
100
AcDb2dVertex
8
Layer01
10
516.476927
20
0.517296
30
0.0
0
VERTEX
100
AcDbVertex
100
AcDb2dVertex
8
Layer01
10
517.00992
20
0.535396
30
0.0
0
VERTEX
100
AcDbVertex
100
AcDb2dVertex
8
Layer01
10
522.873003
20
0.789132
30
0.0
0
VERTEX
100
AcDbVertex
100
AcDb2dVertex
8
Layer01
10
523.405996
20
0.824554
30
0.0
0
VERTEX
100
AcDbVertex
100
AcDb2dVertex
8
Layer01
10
523.93899
20
0.860944
30
0.0
0
VERTEX
100
AcDbVertex
100
AcDb2dVertex
8
Layer01
10
524.471983
20
0.897546
30
0.0
0
VERTEX
100
AcDbVertex
100
AcDb2dVertex
8
Layer01
10
525.004976
20
0.933415
30
0.0
0
VERTEX
100
AcDbVertex
100
AcDb2dVertex
8
Layer01
10
525.537969
20
0.967406
30
0.0
0
VERTEX
100
AcDbVertex
100
AcDb2dVertex
8
Layer01
10
526.070962
20
0.998157
30
0.0
0
VERTEX
100
AcDbVertex
100
AcDb2dVertex
8
Layer01
10
526.603955
20
1.024074
30
0.0
0
VERTEX
100
AcDbVertex
100
AcDb2dVertex
8
Layer01
10
527.136948
20
1.043319
30
0.0
0
VERTEX
100
AcDbVertex
100
AcDb2dVertex
8
Layer01
10
527.669942
20
1.053794
30
0.0
0
VERTEX
100
AcDbVertex
100
AcDb2dVertex
8
Layer01
10
528.202998
20
1.053125
30
0.0
0
VERTEX
100
AcDbVertex
100
AcDb2dVertex
8
Layer01
10
528.735991
20
1.038653
30
0.0
0
VERTEX
100
AcDbVertex
100
AcDb2dVertex
8
Layer01
10
529.268984
20
1.007414
30
0.0
0
VERTEX
100
AcDbVertex
100
AcDb2dVertex
8
Layer01
10
529.801978
20
0.956128
30
0.0
0
VERTEX
100
AcDbVertex
100
AcDb2dVertex
8
Layer01
10
530.334971
20
0.88118
30
0.0
0
VERTEX
100
AcDbVertex
100
AcDb2dVertex
8
Layer01
10
530.867964
20
0.778613
30
0.0
0
VERTEX
100
AcDbVertex
100
AcDb2dVertex
8
Layer01
10
531.400957
20
0.644105
30
0.0
0
VERTEX
100
AcDbVertex
100
AcDb2dVertex
8
Layer01
10
531.93395
20
0.472964
30
0.0
0
VERTEX
100
AcDbVertex
100
AcDb2dVertex
8
Layer01
10
532.466943
20
0.260103
30
0.0
0
VERTEX
100
AcDbVertex
100
AcDb2dVertex
8
Layer01
10
532.999936
20
0.000034
30
0.0
0
VERTEX
100
AcDbVertex
100
AcDb2dVertex
8
Layer01
10
533.0
20
0.0
30
0.0
0
SEQEND
0
POLYLINE
5
 502
100
AcDbEntity
8
AXIS
66
 1
100
AcDb2dPolyline
70
 0
0
VERTEX
100
AcDbVertex
100
AcDb2dVertex
8
AXIS
10
0.0
20
0.0
30
0.0
0
VERTEX
100
AcDbVertex
100
AcDb2dVertex
8
AXIS
10
533.0
20
0.0
30
0.0
0
SEQEND
0
POLYLINE
5
 503
100
AcDbEntity
8
COFFR
66
 1
100
AcDb2dPolyline
70
 0
0
VERTEX
100
AcDbVertex
100
AcDb2dVertex
8
COFFR
10
19.999984
20
50.306045
30
0.0
0
VERTEX
100
AcDbVertex
100
AcDb2dVertex
8
COFFR
10
19.999984
20
5.657878
30
0.0
0
SEQEND
0
POLYLINE
5
 503
100
AcDbEntity
8
COFFR
66
 1
100
AcDb2dPolyline
70
 0
0
VERTEX
100
AcDbVertex
100
AcDb2dVertex
8
COFFR
10
533.0
20
0.0
30
0.0
0
VERTEX
100
AcDbVertex
100
AcDb2dVertex
8
COFFR
10
533.0
20
0.0
30
0.0
0
SEQEND
0
POLYLINE
5
 503
100
AcDbEntity
8
COFFR
66
 1
100
AcDb2dPolyline
70
 0
0
VERTEX
100
AcDbVertex
100
AcDb2dVertex
8
COFFR
10
525.064091
20
4.271962
30
0.0
0
VERTEX
100
AcDbVertex
100
AcDb2dVertex
8
COFFR
10
523.711166
20
4.391532
30
0.0
0
VERTEX
100
AcDbVertex
100
AcDb2dVertex
8
COFFR
10
522.381005
20
4.518717
30
0.0
0
VERTEX
100
AcDbVertex
100
AcDb2dVertex
8
COFFR
10
521.063512
20
4.692656
30
0.0
0
VERTEX
100
AcDbVertex
100
AcDb2dVertex
8
COFFR
10
519.748994
20
4.922514
30
0.0
0
VERTEX
100
AcDbVertex
100
AcDb2dVertex
8
COFFR
10
518.434172
20
5.20731
30
0.0
0
VERTEX
100
AcDbVertex
100
AcDb2dVertex
8
COFFR
10
517.112624
20
5.525952
30
0.0
0
VERTEX
100
AcDbVertex
100
AcDb2dVertex
8
COFFR
10
515.768765
20
5.80863
30
0.0
0
VERTEX
100
AcDbVertex
100
AcDb2dVertex
8
COFFR
10
514.439741
20
6.102565
30
0.0
0
VERTEX
100
AcDbVertex
100
AcDb2dVertex
8
COFFR
10
513.11082
20
6.407613
30
0.0
0
VERTEX
100
AcDbVertex
100
AcDb2dVertex
8
COFFR
10
511.781425
20
6.722282
30
0.0
0
VERTEX
100
AcDbVertex
100
AcDb2dVertex
8
COFFR
10
510.452122
20
7.046878
30
0.0
0
VERTEX
100
AcDbVertex
100
AcDb2dVertex
8
COFFR
10
509.12238
20
7.380017
30
0.0
0
VERTEX
100
AcDbVertex
100
AcDb2dVertex
8
COFFR
10
507.7927
20
7.721911
30
0.0
0
VERTEX
100
AcDbVertex
100
AcDb2dVertex
8
COFFR
10
506.462631
20
8.071337
30
0.0
0
VERTEX
100
AcDbVertex
100
AcDb2dVertex
8
COFFR
10
505.132612
20
8.428466
30
0.0
0
VERTEX
100
AcDbVertex
100
AcDb2dVertex
8
COFFR
10
503.802237
20
8.792177
30
0.0
0
VERTEX
100
AcDbVertex
100
AcDb2dVertex
8
COFFR
10
502.471895
20
9.162589
30
0.0
0
VERTEX
100
AcDbVertex
100
AcDb2dVertex
8
COFFR
10
501.141235
20
9.5387
30
0.0
0
VERTEX
100
AcDbVertex
100
AcDb2dVertex
8
COFFR
10
499.810604
20
9.920613
30
0.0
0
VERTEX
100
AcDbVertex
100
AcDb2dVertex
8
COFFR
10
498.479679
20
10.307403
30
0.0
0
VERTEX
100
AcDbVertex
100
AcDb2dVertex
8
COFFR
10
497.148766
20
10.699119
30
0.0
0
VERTEX
100
AcDbVertex
100
AcDb2dVertex
8
COFFR
10
495.817595
20
11.094948
30
0.0
0
VERTEX
100
AcDbVertex
100
AcDb2dVertex
8
COFFR
10
494.486432
20
11.494929
30
0.0
0
VERTEX
100
AcDbVertex
100
AcDb2dVertex
8
COFFR
10
493.155033
20
11.898317
30
0.0
0
VERTEX
100
AcDbVertex
100
AcDb2dVertex
8
COFFR
10
491.823629
20
12.305108
30
0.0
0
VERTEX
100
AcDbVertex
100
AcDb2dVertex
8
COFFR
10
490.492021
20
12.714658
30
0.0
0
VERTEX
100
AcDbVertex
100
AcDb2dVertex
8
COFFR
10
489.160407
20
13.12696
30
0.0
0
VERTEX
100
AcDbVertex
100
AcDb2dVertex
8
COFFR
10
487.828606
20
13.541423
30
0.0
0
VERTEX
100
AcDbVertex
100
AcDb2dVertex
8
COFFR
10
486.496787
20
13.958001
30
0.0
0
VERTEX
100
AcDbVertex
100
AcDb2dVertex
8
COFFR
10
485.16481
20
14.376194
30
0.0
0
VERTEX
100
AcDbVertex
100
AcDb2dVertex
8
COFFR
10
483.832817
20
14.795958
30
0.0
0
VERTEX
100
AcDbVertex
100
AcDb2dVertex
8
COFFR
10
482.50068
20
15.216844
30
0.0
0
VERTEX
100
AcDbVertex
100
AcDb2dVertex
8
COFFR
10
481.168518
20
15.638778
30
0.0
0
VERTEX
100
AcDbVertex
100
AcDb2dVertex
8
COFFR
10
479.836238
20
16.06139
30
0.0
0
VERTEX
100
AcDbVertex
100
AcDb2dVertex
8
COFFR
10
478.503937
20
16.48462
30
0.0
0
VERTEX
100
AcDbVertex
100
AcDb2dVertex
8
COFFR
10
477.171532
20
16.908137
30
0.0
0
VERTEX
100
AcDbVertex
100
AcDb2dVertex
8
COFFR
10
475.839086
20
17.331821
30
0.0
0
VERTEX
100
AcDbVertex
100
AcDb2dVertex
8
COFFR
10
474.506568
20
17.755447
30
0.0
0
VERTEX
100
AcDbVertex
100
AcDb2dVertex
8
COFFR
10
473.174012
20
18.178896
30
0.0
0
VERTEX
100
AcDbVertex
100
AcDb2dVertex
8
COFFR
10
471.841393
20
18.601974
30
0.0
0
VERTEX
100
AcDbVertex
100
AcDb2dVertex
8
COFFR
10
470.50873
20
19.024543
30
0.0
0
VERTEX
100
AcDbVertex
100
AcDb2dVertex
8
COFFR
10
469.176024
20
19.44647
30
0.0
0
VERTEX
100
AcDbVertex
100
AcDb2dVertex
8
COFFR
10
467.843281
20
19.867641
30
0.0
0
VERTEX
100
AcDbVertex
100
AcDb2dVertex
8
COFFR
10
466.510498
20
20.287934
30
0.0
0
VERTEX
100
AcDbVertex
100
AcDb2dVertex
8
COFFR
10
465.177673
20
20.707215
30
0.0
0
VERTEX
100
AcDbVertex
100
AcDb2dVertex
8
COFFR
10
463.844826
20
21.125418
30
0.0
0
VERTEX
100
AcDbVertex
100
AcDb2dVertex
8
COFFR
10
462.511943
20
21.542431
30
0.0
0
VERTEX
100
AcDbVertex
100
AcDb2dVertex
8
COFFR
10
461.179043
20
21.958201
30
0.0
0
VERTEX
100
AcDbVertex
100
AcDb2dVertex
8
COFFR
10
459.846104
20
22.372606
30
0.0
0
VERTEX
100
AcDbVertex
100
AcDb2dVertex
8
COFFR
10
458.513161
20
22.785637
30
0.0
0
VERTEX
100
AcDbVertex
100
AcDb2dVertex
8
COFFR
10
457.180189
20
23.1972
30
0.0
0
VERTEX
100
AcDbVertex
100
AcDb2dVertex
8
COFFR
10
455.847214
20
23.607289
30
0.0
0
VERTEX
100
AcDbVertex
100
AcDb2dVertex
8
COFFR
10
454.514206
20
24.0158
30
0.0
0
VERTEX
100
AcDbVertex
100
AcDb2dVertex
8
COFFR
10
453.181208
20
24.422766
30
0.0
0
VERTEX
100
AcDbVertex
100
AcDb2dVertex
8
COFFR
10
451.848187
20
24.828115
30
0.0
0
VERTEX
100
AcDbVertex
100
AcDb2dVertex
8
COFFR
10
450.515174
20
25.231871
30
0.0
0
VERTEX
100
AcDbVertex
100
AcDb2dVertex
8
COFFR
10
449.182134
20
25.633951
30
0.0
0
VERTEX
100
AcDbVertex
100
AcDb2dVertex
8
COFFR
10
447.849112
20
26.034412
30
0.0
0
VERTEX
100
AcDbVertex
100
AcDb2dVertex
8
COFFR
10
446.516075
20
26.433204
30
0.0
0
VERTEX
100
AcDbVertex
100
AcDb2dVertex
8
COFFR
10
445.183056
20
26.830387
30
0.0
0
VERTEX
100
AcDbVertex
100
AcDb2dVertex
8
COFFR
10
443.850011
20
27.225878
30
0.0
0
VERTEX
100
AcDbVertex
100
AcDb2dVertex
8
COFFR
10
442.517002
20
27.619792
30
0.0
0
VERTEX
100
AcDbVertex
100
AcDb2dVertex
8
COFFR
10
441.183976
20
28.012071
30
0.0
0
VERTEX
100
AcDbVertex
100
AcDb2dVertex
8
COFFR
10
439.850981
20
28.402815
30
0.0
0
VERTEX
100
AcDbVertex
100
AcDb2dVertex
8
COFFR
10
438.517967
20
28.791964
30
0.0
0
VERTEX
100
AcDbVertex
100
AcDb2dVertex
8
COFFR
10
437.184991
20
29.179638
30
0.0
0
VERTEX
100
AcDbVertex
100
AcDb2dVertex
8
COFFR
10
435.852161
20
29.566294
30
0.0
0
VERTEX
100
AcDbVertex
100
AcDb2dVertex
8
COFFR
10
434.519138
20
29.951318
30
0.0
0
VERTEX
100
AcDbVertex
100
AcDb2dVertex
8
COFFR
10
433.186044
20
30.334495
30
0.0
0
VERTEX
100
AcDbVertex
100
AcDb2dVertex
8
COFFR
10
431.852981
20
30.715926
30
0.0
0
VERTEX
100
AcDbVertex
100
AcDb2dVertex
8
COFFR
10
430.519337
20
31.093783
30
0.0
0
VERTEX
100
AcDbVertex
100
AcDb2dVertex
8
COFFR
10
429.186748
20
31.471406
30
0.0
0
VERTEX
100
AcDbVertex
100
AcDb2dVertex
8
COFFR
10
427.85464
20
31.850266
30
0.0
0
VERTEX
100
AcDbVertex
100
AcDb2dVertex
8
COFFR
10
426.522885
20
32.231453
30
0.0
0
VERTEX
100
AcDbVertex
100
AcDb2dVertex
8
COFFR
10
425.192464
20
32.619147
30
0.0
0
VERTEX
100
AcDbVertex
100
AcDb2dVertex
8
COFFR
10
423.860733
20
33.009175
30
0.0
0
VERTEX
100
AcDbVertex
100
AcDb2dVertex
8
COFFR
10
422.528679
20
33.400573
30
0.0
0
VERTEX
100
AcDbVertex
100
AcDb2dVertex
8
COFFR
10
421.196159
20
33.791891
30
0.0
0
VERTEX
100
AcDbVertex
100
AcDb2dVertex
8
COFFR
10
419.862628
20
34.179966
30
0.0
0
VERTEX
100
AcDbVertex
100
AcDb2dVertex
8
COFFR
10
418.529664
20
34.566624
30
0.0
0
VERTEX
100
AcDbVertex
100
AcDb2dVertex
8
COFFR
10
417.196691
20
34.951815
30
0.0
0
VERTEX
100
AcDbVertex
100
AcDb2dVertex
8
COFFR
10
415.86378
20
35.335732
30
0.0
0
VERTEX
100
AcDbVertex
100
AcDb2dVertex
8
COFFR
10
414.531077
20
35.719026
30
0.0
0
VERTEX
100
AcDbVertex
100
AcDb2dVertex
8
COFFR
10
413.198227
20
36.101231
30
0.0
0
VERTEX
100
AcDbVertex
100
AcDb2dVertex
8
COFFR
10
411.865358
20
36.48229
30
0.0
0
VERTEX
100
AcDbVertex
100
AcDb2dVertex
8
COFFR
10
410.532505
20
36.862252
30
0.0
0
VERTEX
100
AcDbVertex
100
AcDb2dVertex
8
COFFR
10
409.199636
20
37.241069
30
0.0
0
VERTEX
100
AcDbVertex
100
AcDb2dVertex
8
COFFR
10
407.866775
20
37.618766
30
0.0
0
VERTEX
100
AcDbVertex
100
AcDb2dVertex
8
COFFR
10
406.533891
20
37.995272
30
0.0
0
VERTEX
100
AcDbVertex
100
AcDb2dVertex
8
COFFR
10
405.201023
20
38.370634
30
0.0
0
VERTEX
100
AcDbVertex
100
AcDb2dVertex
8
COFFR
10
403.868138
20
38.744801
30
0.0
0
VERTEX
100
AcDbVertex
100
AcDb2dVertex
8
COFFR
10
402.535261
20
39.117801
30
0.0
0
VERTEX
100
AcDbVertex
100
AcDb2dVertex
8
COFFR
10
401.202364
20
39.489567
30
0.0
0
VERTEX
100
AcDbVertex
100
AcDb2dVertex
8
COFFR
10
399.869482
20
39.860146
30
0.0
0
VERTEX
100
AcDbVertex
100
AcDb2dVertex
8
COFFR
10
398.536584
20
40.229492
30
0.0
0
VERTEX
100
AcDbVertex
100
AcDb2dVertex
8
COFFR
10
397.203695
20
40.597632
30
0.0
0
VERTEX
100
AcDbVertex
100
AcDb2dVertex
8
COFFR
10
395.870787
20
40.964503
30
0.0
0
VERTEX
100
AcDbVertex
100
AcDb2dVertex
8
COFFR
10
394.537892
20
41.33015
30
0.0
0
VERTEX
100
AcDbVertex
100
AcDb2dVertex
8
COFFR
10
393.204984
20
41.694528
30
0.0
0
VERTEX
100
AcDbVertex
100
AcDb2dVertex
8
COFFR
10
391.872085
20
42.057669
30
0.0
0
VERTEX
100
AcDbVertex
100
AcDb2dVertex
8
COFFR
10
390.539168
20
42.419515
30
0.0
0
VERTEX
100
AcDbVertex
100
AcDb2dVertex
8
COFFR
10
389.206265
20
42.780111
30
0.0
0
VERTEX
100
AcDbVertex
100
AcDb2dVertex
8
COFFR
10
387.873351
20
43.139424
30
0.0
0
VERTEX
100
AcDbVertex
100
AcDb2dVertex
8
COFFR
10
386.540444
20
43.497474
30
0.0
0
VERTEX
100
AcDbVertex
100
AcDb2dVertex
8
COFFR
10
385.207519
20
43.854205
30
0.0
0
VERTEX
100
AcDbVertex
100
AcDb2dVertex
8
COFFR
10
383.874608
20
44.209659
30
0.0
0
VERTEX
100
AcDbVertex
100
AcDb2dVertex
8
COFFR
10
382.541691
20
44.563821
30
0.0
0
VERTEX
100
AcDbVertex
100
AcDb2dVertex
8
COFFR
10
381.208772
20
44.916682
30
0.0
0
VERTEX
100
AcDbVertex
100
AcDb2dVertex
8
COFFR
10
379.875834
20
45.268184
30
0.0
0
VERTEX
100
AcDbVertex
100
AcDb2dVertex
8
COFFR
10
378.542909
20
45.618366
30
0.0
0
VERTEX
100
AcDbVertex
100
AcDb2dVertex
8
COFFR
10
377.209944
20
45.967105
30
0.0
0
VERTEX
100
AcDbVertex
100
AcDb2dVertex
8
COFFR
10
375.877042
20
46.314597
30
0.0
0
VERTEX
100
AcDbVertex
100
AcDb2dVertex
8
COFFR
10
374.544141
20
46.660847
30
0.0
0
VERTEX
100
AcDbVertex
100
AcDb2dVertex
8
COFFR
10
373.21128
20
47.005978
30
0.0
0
VERTEX
100
AcDbVertex
100
AcDb2dVertex
8
COFFR
10
371.878468
20
47.350143
30
0.0
0
VERTEX
100
AcDbVertex
100
AcDb2dVertex
8
COFFR
10
370.545603
20
47.693171
30
0.0
0
VERTEX
100
AcDbVertex
100
AcDb2dVertex
8
COFFR
10
369.212695
20
48.034932
30
0.0
0
VERTEX
100
AcDbVertex
100
AcDb2dVertex
8
COFFR
10
367.879782
20
48.375412
30
0.0
0
VERTEX
100
AcDbVertex
100
AcDb2dVertex
8
COFFR
10
366.546795
20
48.714378
30
0.0
0
VERTEX
100
AcDbVertex
100
AcDb2dVertex
8
COFFR
10
365.213854
20
49.05198
30
0.0
0
VERTEX
100
AcDbVertex
100
AcDb2dVertex
8
COFFR
10
363.88089
20
49.388138
30
0.0
0
VERTEX
100
AcDbVertex
100
AcDb2dVertex
8
COFFR
10
362.547948
20
49.722928
30
0.0
0
VERTEX
100
AcDbVertex
100
AcDb2dVertex
8
COFFR
10
361.215001
20
50.056328
30
0.0
0
VERTEX
100
AcDbVertex
100
AcDb2dVertex
8
COFFR
10
359.882058
20
50.388355
30
0.0
0
VERTEX
100
AcDbVertex
100
AcDb2dVertex
8
COFFR
10
358.54909
20
50.71893
30
0.0
0
VERTEX
100
AcDbVertex
100
AcDb2dVertex
8
COFFR
10
357.216142
20
51.048114
30
0.0
0
VERTEX
100
AcDbVertex
100
AcDb2dVertex
8
COFFR
10
355.883173
20
51.375842
30
0.0
0
VERTEX
100
AcDbVertex
100
AcDb2dVertex
8
COFFR
10
354.550219
20
51.702165
30
0.0
0
VERTEX
100
AcDbVertex
100
AcDb2dVertex
8
COFFR
10
353.217243
20
52.027008
30
0.0
0
VERTEX
100
AcDbVertex
100
AcDb2dVertex
8
COFFR
10
351.884286
20
52.350433
30
0.0
0
VERTEX
100
AcDbVertex
100
AcDb2dVertex
8
COFFR
10
350.551311
20
52.672386
30
0.0
0
VERTEX
100
AcDbVertex
100
AcDb2dVertex
8
COFFR
10
349.21835
20
52.992909
30
0.0
0
VERTEX
100
AcDbVertex
100
AcDb2dVertex
8
COFFR
10
347.885367
20
53.311932
30
0.0
0
VERTEX
100
AcDbVertex
100
AcDb2dVertex
8
COFFR
10
346.552402
20
53.629514
30
0.0
0
VERTEX
100
AcDbVertex
100
AcDb2dVertex
8
COFFR
10
345.219421
20
53.945602
30
0.0
0
VERTEX
100
AcDbVertex
100
AcDb2dVertex
8
COFFR
10
343.886454
20
54.260242
30
0.0
0
VERTEX
100
AcDbVertex
100
AcDb2dVertex
8
COFFR
10
342.553458
20
54.573343
30
0.0
0
VERTEX
100
AcDbVertex
100
AcDb2dVertex
8
COFFR
10
341.22049
20
54.884991
30
0.0
0
VERTEX
100
AcDbVertex
100
AcDb2dVertex
8
COFFR
10
339.887494
20
55.1951
30
0.0
0
VERTEX
100
AcDbVertex
100
AcDb2dVertex
8
COFFR
10
338.554521
20
55.503742
30
0.0
0
VERTEX
100
AcDbVertex
100
AcDb2dVertex
8
COFFR
10
337.221517
20
55.810821
30
0.0
0
VERTEX
100
AcDbVertex
100
AcDb2dVertex
8
COFFR
10
335.888541
20
56.116422
30
0.0
0
VERTEX
100
AcDbVertex
100
AcDb2dVertex
8
COFFR
10
334.555538
20
56.420463
30
0.0
0
VERTEX
100
AcDbVertex
100
AcDb2dVertex
8
COFFR
10
333.222557
20
56.723014
30
0.0
0
VERTEX
100
AcDbVertex
100
AcDb2dVertex
8
COFFR
10
331.889547
20
57.023979
30
0.0
0
VERTEX
100
AcDbVertex
100
AcDb2dVertex
8
COFFR
10
330.556562
20
57.323442
30
0.0
0
VERTEX
100
AcDbVertex
100
AcDb2dVertex
8
COFFR
10
329.223545
20
57.6213
30
0.0
0
VERTEX
100
AcDbVertex
100
AcDb2dVertex
8
COFFR
10
327.89056
20
57.917653
30
0.0
0
VERTEX
100
AcDbVertex
100
AcDb2dVertex
8
COFFR
10
326.557548
20
58.212419
30
0.0
0
VERTEX
100
AcDbVertex
100
AcDb2dVertex
8
COFFR
10
325.224562
20
58.505678
30
0.0
0
VERTEX
100
AcDbVertex
100
AcDb2dVertex
8
COFFR
10
323.891579
20
58.797438
30
0.0
0
VERTEX
100
AcDbVertex
100
AcDb2dVertex
8
COFFR
10
322.558568
20
59.087613
30
0.0
0
VERTEX
100
AcDbVertex
100
AcDb2dVertex
8
COFFR
10
321.225506
20
59.37604
30
0.0
0
VERTEX
100
AcDbVertex
100
AcDb2dVertex
8
COFFR
10
319.892453
20
59.662754
30
0.0
0
VERTEX
100
AcDbVertex
100
AcDb2dVertex
8
COFFR
10
318.559314
20
59.947481
30
0.0
0
VERTEX
100
AcDbVertex
100
AcDb2dVertex
8
COFFR
10
317.226258
20
60.230486
30
0.0
0
VERTEX
100
AcDbVertex
100
AcDb2dVertex
8
COFFR
10
315.89319
20
60.511731
30
0.0
0
VERTEX
100
AcDbVertex
100
AcDb2dVertex
8
COFFR
10
314.560171
20
60.791365
30
0.0
0
VERTEX
100
AcDbVertex
100
AcDb2dVertex
8
COFFR
10
313.227177
20
61.069468
30
0.0
0
VERTEX
100
AcDbVertex
100
AcDb2dVertex
8
COFFR
10
311.894179
20
61.346027
30
0.0
0
VERTEX
100
AcDbVertex
100
AcDb2dVertex
8
COFFR
10
310.561149
20
61.620939
30
0.0
0
VERTEX
100
AcDbVertex
100
AcDb2dVertex
8
COFFR
10
309.228149
20
61.894301
30
0.0
0
VERTEX
100
AcDbVertex
100
AcDb2dVertex
8
COFFR
10
307.895109
20
62.165986
30
0.0
0
VERTEX
100
AcDbVertex
100
AcDb2dVertex
8
COFFR
10
306.562104
20
62.436107
30
0.0
0
VERTEX
100
AcDbVertex
100
AcDb2dVertex
8
COFFR
10
305.229065
20
62.704555
30
0.0
0
VERTEX
100
AcDbVertex
100
AcDb2dVertex
8
COFFR
10
303.896058
20
62.971432
30
0.0
0
VERTEX
100
AcDbVertex
100
AcDb2dVertex
8
COFFR
10
302.563021
20
63.236643
30
0.0
0
VERTEX
100
AcDbVertex
100
AcDb2dVertex
8
COFFR
10
301.230013
20
63.500278
30
0.0
0
VERTEX
100
AcDbVertex
100
AcDb2dVertex
8
COFFR
10
299.896972
20
63.762234
30
0.0
0
VERTEX
100
AcDbVertex
100
AcDb2dVertex
8
COFFR
10
298.563962
20
64.022608
30
0.0
0
VERTEX
100
AcDbVertex
100
AcDb2dVertex
8
COFFR
10
297.230925
20
64.281315
30
0.0
0
VERTEX
100
AcDbVertex
100
AcDb2dVertex
8
COFFR
10
295.897912
20
64.538431
30
0.0
0
VERTEX
100
AcDbVertex
100
AcDb2dVertex
8
COFFR
10
294.564865
20
64.793851
30
0.0
0
VERTEX
100
AcDbVertex
100
AcDb2dVertex
8
COFFR
10
293.231848
20
65.047668
30
0.0
0
VERTEX
100
AcDbVertex
100
AcDb2dVertex
8
COFFR
10
291.898799
20
65.299782
30
0.0
0
VERTEX
100
AcDbVertex
100
AcDb2dVertex
8
COFFR
10
290.565779
20
65.550283
30
0.0
0
VERTEX
100
AcDbVertex
100
AcDb2dVertex
8
COFFR
10
289.232727
20
65.79907
30
0.0
0
VERTEX
100
AcDbVertex
100
AcDb2dVertex
8
COFFR
10
287.899705
20
66.046238
30
0.0
0
VERTEX
100
AcDbVertex
100
AcDb2dVertex
8
COFFR
10
286.566655
20
66.291703
30
0.0
0
VERTEX
100
AcDbVertex
100
AcDb2dVertex
8
COFFR
10
285.23363
20
66.535539
30
0.0
0
VERTEX
100
AcDbVertex
100
AcDb2dVertex
8
COFFR
10
283.900572
20
66.777644
30
0.0
0
VERTEX
100
AcDbVertex
100
AcDb2dVertex
8
COFFR
10
282.567543
20
67.018107
30
0.0
0
VERTEX
100
AcDbVertex
100
AcDb2dVertex
8
COFFR
10
281.234484
20
67.256835
30
0.0
0
VERTEX
100
AcDbVertex
100
AcDb2dVertex
8
COFFR
10
279.901451
20
67.493912
30
0.0
0
VERTEX
100
AcDbVertex
100
AcDb2dVertex
8
COFFR
10
278.568379
20
67.729214
30
0.0
0
VERTEX
100
AcDbVertex
100
AcDb2dVertex
8
COFFR
10
277.235342
20
67.962851
30
0.0
0
VERTEX
100
AcDbVertex
100
AcDb2dVertex
8
COFFR
10
275.902296
20
68.194795
30
0.0
0
VERTEX
100
AcDbVertex
100
AcDb2dVertex
8
COFFR
10
274.569241
20
68.425018
30
0.0
0
VERTEX
100
AcDbVertex
100
AcDb2dVertex
8
COFFR
10
273.236135
20
68.653359
30
0.0
0
VERTEX
100
AcDbVertex
100
AcDb2dVertex
8
COFFR
10
271.903064
20
68.879927
30
0.0
0
VERTEX
100
AcDbVertex
100
AcDb2dVertex
8
COFFR
10
270.569844
20
69.104261
30
0.0
0
VERTEX
100
AcDbVertex
100
AcDb2dVertex
8
COFFR
10
269.236853
20
69.327078
30
0.0
0
VERTEX
100
AcDbVertex
100
AcDb2dVertex
8
COFFR
10
267.903914
20
69.548532
30
0.0
0
VERTEX
100
AcDbVertex
100
AcDb2dVertex
8
COFFR
10
266.57107
20
69.768923
30
0.0
0
VERTEX
100
AcDbVertex
100
AcDb2dVertex
8
COFFR
10
265.238444
20
69.988929
30
0.0
0
VERTEX
100
AcDbVertex
100
AcDb2dVertex
8
COFFR
10
263.905588
20
70.207825
30
0.0
0
VERTEX
100
AcDbVertex
100
AcDb2dVertex
8
COFFR
10
262.572623
20
70.425276
30
0.0
0
VERTEX
100
AcDbVertex
100
AcDb2dVertex
8
COFFR
10
261.239595
20
70.641089
30
0.0
0
VERTEX
100
AcDbVertex
100
AcDb2dVertex
8
COFFR
10
259.906323
20
70.854502
30
0.0
0
VERTEX
100
AcDbVertex
100
AcDb2dVertex
8
COFFR
10
258.573192
20
71.065961
30
0.0
0
VERTEX
100
AcDbVertex
100
AcDb2dVertex
8
COFFR
10
257.240012
20
71.27531
30
0.0
0
VERTEX
100
AcDbVertex
100
AcDb2dVertex
8
COFFR
10
255.906876
20
71.482687
30
0.0
0
VERTEX
100
AcDbVertex
100
AcDb2dVertex
8
COFFR
10
254.573735
20
71.688076
30
0.0
0
VERTEX
100
AcDbVertex
100
AcDb2dVertex
8
COFFR
10
253.240595
20
71.89148
30
0.0
0
VERTEX
100
AcDbVertex
100
AcDb2dVertex
8
COFFR
10
251.9074
20
72.092728
30
0.0
0
VERTEX
100
AcDbVertex
100
AcDb2dVertex
8
COFFR
10
250.574243
20
72.291939
30
0.0
0
VERTEX
100
AcDbVertex
100
AcDb2dVertex
8
COFFR
10
249.241032
20
72.488941
30
0.0
0
VERTEX
100
AcDbVertex
100
AcDb2dVertex
8
COFFR
10
247.907856
20
72.68385
30
0.0
0
VERTEX
100
AcDbVertex
100
AcDb2dVertex
8
COFFR
10
246.574623
20
72.876484
30
0.0
0
VERTEX
100
AcDbVertex
100
AcDb2dVertex
8
COFFR
10
245.24143
20
73.066968
30
0.0
0
VERTEX
100
AcDbVertex
100
AcDb2dVertex
8
COFFR
10
243.908181
20
73.255129
30
0.0
0
VERTEX
100
AcDbVertex
100
AcDb2dVertex
8
COFFR
10
242.574968
20
73.441082
30
0.0
0
VERTEX
100
AcDbVertex
100
AcDb2dVertex
8
COFFR
10
241.241695
20
73.624633
30
0.0
0
VERTEX
100
AcDbVertex
100
AcDb2dVertex
8
COFFR
10
239.908462
20
73.805913
30
0.0
0
VERTEX
100
AcDbVertex
100
AcDb2dVertex
8
COFFR
10
238.575169
20
73.984732
30
0.0
0
VERTEX
100
AcDbVertex
100
AcDb2dVertex
8
COFFR
10
237.241918
20
74.161223
30
0.0
0
VERTEX
100
AcDbVertex
100
AcDb2dVertex
8
COFFR
10
235.908601
20
74.335179
30
0.0
0
VERTEX
100
AcDbVertex
100
AcDb2dVertex
8
COFFR
10
234.575332
20
74.506751
30
0.0
0
VERTEX
100
AcDbVertex
100
AcDb2dVertex
8
COFFR
10
233.241998
20
74.675735
30
0.0
0
VERTEX
100
AcDbVertex
100
AcDb2dVertex
8
COFFR
10
231.90871
20
74.842279
30
0.0
0
VERTEX
100
AcDbVertex
100
AcDb2dVertex
8
COFFR
10
230.575354
20
75.006167
30
0.0
0
VERTEX
100
AcDbVertex
100
AcDb2dVertex
8
COFFR
10
229.242049
20
75.167558
30
0.0
0
VERTEX
100
AcDbVertex
100
AcDb2dVertex
8
COFFR
10
227.908676
20
75.326243
30
0.0
0
VERTEX
100
AcDbVertex
100
AcDb2dVertex
8
COFFR
10
226.575353
20
75.482374
30
0.0
0
VERTEX
100
AcDbVertex
100
AcDb2dVertex
8
COFFR
10
225.241958
20
75.635728
30
0.0
0
VERTEX
100
AcDbVertex
100
AcDb2dVertex
8
COFFR
10
223.908616
20
75.786474
30
0.0
0
VERTEX
100
AcDbVertex
100
AcDb2dVertex
8
COFFR
10
222.575128
20
75.934153
30
0.0
0
VERTEX
100
AcDbVertex
100
AcDb2dVertex
8
COFFR
10
221.241804
20
76.079279
30
0.0
0
VERTEX
100
AcDbVertex
100
AcDb2dVertex
8
COFFR
10
219.908435
20
76.22171
30
0.0
0
VERTEX
100
AcDbVertex
100
AcDb2dVertex
8
COFFR
10
218.575127
20
76.361635
30
0.0
0
VERTEX
100
AcDbVertex
100
AcDb2dVertex
8
COFFR
10
217.242036
20
76.49973
30
0.0
0
VERTEX
100
AcDbVertex
100
AcDb2dVertex
8
COFFR
10
215.908487
20
76.634567
30
0.0
0
VERTEX
100
AcDbVertex
100
AcDb2dVertex
8
COFFR
10
214.57462
20
76.765162
30
0.0
0
VERTEX
100
AcDbVertex
100
AcDb2dVertex
8
COFFR
10
213.240655
20
76.891213
30
0.0
0
VERTEX
100
AcDbVertex
100
AcDb2dVertex
8
COFFR
10
211.905946
20
77.010404
30
0.0
0
VERTEX
100
AcDbVertex
100
AcDb2dVertex
8
COFFR
10
210.571977
20
77.125051
30
0.0
0
VERTEX
100
AcDbVertex
100
AcDb2dVertex
8
COFFR
10
209.238102
20
77.235435
30
0.0
0
VERTEX
100
AcDbVertex
100
AcDb2dVertex
8
COFFR
10
207.904542
20
77.342534
30
0.0
0
VERTEX
100
AcDbVertex
100
AcDb2dVertex
8
COFFR
10
206.571433
20
77.447752
30
0.0
0
VERTEX
100
AcDbVertex
100
AcDb2dVertex
8
COFFR
10
205.238104
20
77.550398
30
0.0
0
VERTEX
100
AcDbVertex
100
AcDb2dVertex
8
COFFR
10
203.904707
20
77.650259
30
0.0
0
VERTEX
100
AcDbVertex
100
AcDb2dVertex
8
COFFR
10
202.571353
20
77.747474
30
0.0
0
VERTEX
100
AcDbVertex
100
AcDb2dVertex
8
COFFR
10
201.237824
20
77.841497
30
0.0
0
VERTEX
100
AcDbVertex
100
AcDb2dVertex
8
COFFR
10
199.904443
20
77.932788
30
0.0
0
VERTEX
100
AcDbVertex
100
AcDb2dVertex
8
COFFR
10
198.570996
20
78.021142
30
0.0
0
VERTEX
100
AcDbVertex
100
AcDb2dVertex
8
COFFR
10
197.237622
20
78.106786
30
0.0
0
VERTEX
100
AcDbVertex
100
AcDb2dVertex
8
COFFR
10
195.904182
20
78.189516
30
0.0
0
VERTEX
100
AcDbVertex
100
AcDb2dVertex
8
COFFR
10
194.570816
20
78.269561
30
0.0
0
VERTEX
100
AcDbVertex
100
AcDb2dVertex
8
COFFR
10
193.237386
20
78.346722
30
0.0
0
VERTEX
100
AcDbVertex
100
AcDb2dVertex
8
COFFR
10
191.904029
20
78.421226
30
0.0
0
VERTEX
100
AcDbVertex
100
AcDb2dVertex
8
COFFR
10
190.57061
20
78.492881
30
0.0
0
VERTEX
100
AcDbVertex
100
AcDb2dVertex
8
COFFR
10
189.23726
20
78.5619
30
0.0
0
VERTEX
100
AcDbVertex
100
AcDb2dVertex
8
COFFR
10
187.903845
20
78.628082
30
0.0
0
VERTEX
100
AcDbVertex
100
AcDb2dVertex
8
COFFR
10
186.5705
20
78.691644
30
0.0
0
VERTEX
100
AcDbVertex
100
AcDb2dVertex
8
COFFR
10
185.237091
20
78.752386
30
0.0
0
VERTEX
100
AcDbVertex
100
AcDb2dVertex
8
COFFR
10
183.90375
20
78.810522
30
0.0
0
VERTEX
100
AcDbVertex
100
AcDb2dVertex
8
COFFR
10
182.570343
20
78.865846
30
0.0
0
VERTEX
100
AcDbVertex
100
AcDb2dVertex
8
COFFR
10
181.237006
20
78.918575
30
0.0
0
VERTEX
100
AcDbVertex
100
AcDb2dVertex
8
COFFR
10
179.903602
20
78.968501
30
0.0
0
VERTEX
100
AcDbVertex
100
AcDb2dVertex
8
COFFR
10
178.570267
20
79.015839
30
0.0
0
VERTEX
100
AcDbVertex
100
AcDb2dVertex
8
COFFR
10
177.236865
20
79.06038
30
0.0
0
VERTEX
100
AcDbVertex
100
AcDb2dVertex
8
COFFR
10
175.903532
20
79.102336
30
0.0
0
VERTEX
100
AcDbVertex
100
AcDb2dVertex
8
COFFR
10
174.570131
20
79.141498
30
0.0
0
VERTEX
100
AcDbVertex
100
AcDb2dVertex
8
COFFR
10
173.236797
20
79.178074
30
0.0
0
VERTEX
100
AcDbVertex
100
AcDb2dVertex
8
COFFR
10
171.903394
20
79.211851
30
0.0
0
VERTEX
100
AcDbVertex
100
AcDb2dVertex
8
COFFR
10
170.570057
20
79.243034
30
0.0
0
VERTEX
100
AcDbVertex
100
AcDb2dVertex
8
COFFR
10
169.236729
20
79.27165
30
0.0
0
VERTEX
100
AcDbVertex
100
AcDb2dVertex
8
COFFR
10
167.903352
20
79.297545
30
0.0
0
VERTEX
100
AcDbVertex
100
AcDb2dVertex
8
COFFR
10
166.569871
20
79.320398
30
0.0
0
VERTEX
100
AcDbVertex
100
AcDb2dVertex
8
COFFR
10
165.236452
20
79.340404
30
0.0
0
VERTEX
100
AcDbVertex
100
AcDb2dVertex
8
COFFR
10
163.90266
20
79.356402
30
0.0
0
VERTEX
100
AcDbVertex
100
AcDb2dVertex
8
COFFR
10
162.569458
20
79.370224
30
0.0
0
VERTEX
100
AcDbVertex
100
AcDb2dVertex
8
COFFR
10
161.236422
20
79.382386
30
0.0
0
VERTEX
100
AcDbVertex
100
AcDb2dVertex
8
COFFR
10
159.903614
20
79.393593
30
0.0
0
VERTEX
100
AcDbVertex
100
AcDb2dVertex
8
COFFR
10
158.571408
20
79.405712
30
0.0
0
VERTEX
100
AcDbVertex
100
AcDb2dVertex
8
COFFR
10
157.238567
20
79.416772
30
0.0
0
VERTEX
100
AcDbVertex
100
AcDb2dVertex
8
COFFR
10
155.905461
20
79.425955
30
0.0
0
VERTEX
100
AcDbVertex
100
AcDb2dVertex
8
COFFR
10
154.572163
20
79.432661
30
0.0
0
VERTEX
100
AcDbVertex
100
AcDb2dVertex
8
COFFR
10
153.238228
20
79.434917
30
0.0
0
VERTEX
100
AcDbVertex
100
AcDb2dVertex
8
COFFR
10
151.905345
20
79.433847
30
0.0
0
VERTEX
100
AcDbVertex
100
AcDb2dVertex
8
COFFR
10
150.574023
20
79.429124
30
0.0
0
VERTEX
100
AcDbVertex
100
AcDb2dVertex
8
COFFR
10
149.242606
20
79.421043
30
0.0
0
VERTEX
100
AcDbVertex
100
AcDb2dVertex
8
COFFR
10
147.911186
20
79.409614
30
0.0
0
VERTEX
100
AcDbVertex
100
AcDb2dVertex
8
COFFR
10
146.579779
20
79.394795
30
0.0
0
VERTEX
100
AcDbVertex
100
AcDb2dVertex
8
COFFR
10
145.248491
20
79.376221
30
0.0
0
VERTEX
100
AcDbVertex
100
AcDb2dVertex
8
COFFR
10
143.917133
20
79.354106
30
0.0
0
VERTEX
100
AcDbVertex
100
AcDb2dVertex
8
COFFR
10
142.585898
20
79.328068
30
0.0
0
VERTEX
100
AcDbVertex
100
AcDb2dVertex
8
COFFR
10
141.254589
20
79.298335
30
0.0
0
VERTEX
100
AcDbVertex
100
AcDb2dVertex
8
COFFR
10
139.923409
20
79.264514
30
0.0
0
VERTEX
100
AcDbVertex
100
AcDb2dVertex
8
COFFR
10
138.59215
20
79.226843
30
0.0
0
VERTEX
100
AcDbVertex
100
AcDb2dVertex
8
COFFR
10
137.261025
20
79.18491
30
0.0
0
VERTEX
100
AcDbVertex
100
AcDb2dVertex
8
COFFR
10
135.929818
20
79.138968
30
0.0
0
VERTEX
100
AcDbVertex
100
AcDb2dVertex
8
COFFR
10
134.59875
20
79.088587
30
0.0
0
VERTEX
100
AcDbVertex
100
AcDb2dVertex
8
COFFR
10
133.267596
20
79.034031
30
0.0
0
VERTEX
100
AcDbVertex
100
AcDb2dVertex
8
COFFR
10
131.936587
20
78.974852
30
0.0
0
VERTEX
100
AcDbVertex
100
AcDb2dVertex
8
COFFR
10
130.605488
20
78.911331
30
0.0
0
VERTEX
100
AcDbVertex
100
AcDb2dVertex
8
COFFR
10
129.274535
20
78.843012
30
0.0
0
VERTEX
100
AcDbVertex
100
AcDb2dVertex
8
COFFR
10
127.943614
20
78.769798
30
0.0
0
VERTEX
100
AcDbVertex
100
AcDb2dVertex
8
COFFR
10
126.612474
20
78.692369
30
0.0
0
VERTEX
100
AcDbVertex
100
AcDb2dVertex
8
COFFR
10
125.281608
20
78.609875
30
0.0
0
VERTEX
100
AcDbVertex
100
AcDb2dVertex
8
COFFR
10
123.950773
20
78.522217
30
0.0
0
VERTEX
100
AcDbVertex
100
AcDb2dVertex
8
COFFR
10
122.619972
20
78.429293
30
0.0
0
VERTEX
100
AcDbVertex
100
AcDb2dVertex
8
COFFR
10
121.288933
20
78.331837
30
0.0
0
VERTEX
100
AcDbVertex
100
AcDb2dVertex
8
COFFR
10
119.958186
20
78.228947
30
0.0
0
VERTEX
100
AcDbVertex
100
AcDb2dVertex
8
COFFR
10
118.627472
20
78.120521
30
0.0
0
VERTEX
100
AcDbVertex
100
AcDb2dVertex
8
COFFR
10
117.296795
20
78.006444
30
0.0
0
VERTEX
100
AcDbVertex
100
AcDb2dVertex
8
COFFR
10
115.965868
20
77.887488
30
0.0
0
VERTEX
100
AcDbVertex
100
AcDb2dVertex
8
COFFR
10
114.635236
20
77.762742
30
0.0
0
VERTEX
100
AcDbVertex
100
AcDb2dVertex
8
COFFR
10
113.304624
20
77.632143
30
0.0
0
VERTEX
100
AcDbVertex
100
AcDb2dVertex
8
COFFR
10
111.974023
20
77.495657
30
0.0
0
VERTEX
100
AcDbVertex
100
AcDb2dVertex
8
COFFR
10
110.643123
20
77.354206
30
0.0
0
VERTEX
100
AcDbVertex
100
AcDb2dVertex
8
COFFR
10
109.31264
20
77.206506
30
0.0
0
VERTEX
100
AcDbVertex
100
AcDb2dVertex
8
COFFR
10
107.982276
20
77.052184
30
0.0
0
VERTEX
100
AcDbVertex
100
AcDb2dVertex
8
COFFR
10
106.652037
20
76.890855
30
0.0
0
VERTEX
100
AcDbVertex
100
AcDb2dVertex
8
COFFR
10
105.321559
20
76.723252
30
0.0
0
VERTEX
100
AcDbVertex
100
AcDb2dVertex
8
COFFR
10
103.99135
20
76.548548
30
0.0
0
VERTEX
100
AcDbVertex
100
AcDb2dVertex
8
COFFR
10
102.661056
20
76.367006
30
0.0
0
VERTEX
100
AcDbVertex
100
AcDb2dVertex
8
COFFR
10
101.330678
20
76.17888
30
0.0
0
VERTEX
100
AcDbVertex
100
AcDb2dVertex
8
COFFR
10
99.999893
20
75.985429
30
0.0
0
VERTEX
100
AcDbVertex
100
AcDb2dVertex
8
COFFR
10
98.669482
20
75.785509
30
0.0
0
VERTEX
100
AcDbVertex
100
AcDb2dVertex
8
COFFR
10
97.339121
20
75.578956
30
0.0
0
VERTEX
100
AcDbVertex
100
AcDb2dVertex
8
COFFR
10
96.008804
20
75.365634
30
0.0
0
VERTEX
100
AcDbVertex
100
AcDb2dVertex
8
COFFR
10
94.678192
20
75.146451
30
0.0
0
VERTEX
100
AcDbVertex
100
AcDb2dVertex
8
COFFR
10
93.347935
20
74.920321
30
0.0
0
VERTEX
100
AcDbVertex
100
AcDb2dVertex
8
COFFR
10
92.017701
20
74.687165
30
0.0
0
VERTEX
100
AcDbVertex
100
AcDb2dVertex
8
COFFR
10
90.68752
20
74.446819
30
0.0
0
VERTEX
100
AcDbVertex
100
AcDb2dVertex
8
COFFR
10
89.357047
20
74.200179
30
0.0
0
VERTEX
100
AcDbVertex
100
AcDb2dVertex
8
COFFR
10
88.026866
20
73.946355
30
0.0
0
VERTEX
100
AcDbVertex
100
AcDb2dVertex
8
COFFR
10
86.696645
20
73.68546
30
0.0
0
VERTEX
100
AcDbVertex
100
AcDb2dVertex
8
COFFR
10
85.366341
20
73.417754
30
0.0
0
VERTEX
100
AcDbVertex
100
AcDb2dVertex
8
COFFR
10
84.03556
20
73.144704
30
0.0
0
VERTEX
100
AcDbVertex
100
AcDb2dVertex
8
COFFR
10
82.705653
20
72.863634
30
0.0
0
VERTEX
100
AcDbVertex
100
AcDb2dVertex
8
COFFR
10
81.376258
20
72.57295
30
0.0
0
VERTEX
100
AcDbVertex
100
AcDb2dVertex
8
COFFR
10
80.047392
20
72.271014
30
0.0
0
VERTEX
100
AcDbVertex
100
AcDb2dVertex
8
COFFR
10
78.718457
20
71.95802
30
0.0
0
VERTEX
100
AcDbVertex
100
AcDb2dVertex
8
COFFR
10
77.389542
20
71.633906
30
0.0
0
VERTEX
100
AcDbVertex
100
AcDb2dVertex
8
COFFR
10
76.060049
20
71.300447
30
0.0
0
VERTEX
100
AcDbVertex
100
AcDb2dVertex
8
COFFR
10
74.729992
20
70.959387
30
0.0
0
VERTEX
100
AcDbVertex
100
AcDb2dVertex
8
COFFR
10
73.399048
20
70.61347
30
0.0
0
VERTEX
100
AcDbVertex
100
AcDb2dVertex
8
COFFR
10
72.068577
20
70.261274
30
0.0
0
VERTEX
100
AcDbVertex
100
AcDb2dVertex
8
COFFR
10
70.738224
20
69.902421
30
0.0
0
VERTEX
100
AcDbVertex
100
AcDb2dVertex
8
COFFR
10
69.407956
20
69.536647
30
0.0
0
VERTEX
100
AcDbVertex
100
AcDb2dVertex
8
COFFR
10
68.077454
20
69.164667
30
0.0
0
VERTEX
100
AcDbVertex
100
AcDb2dVertex
8
COFFR
10
66.747276
20
68.785493
30
0.0
0
VERTEX
100
AcDbVertex
100
AcDb2dVertex
8
COFFR
10
65.417103
20
68.399101
30
0.0
0
VERTEX
100
AcDbVertex
100
AcDb2dVertex
8
COFFR
10
64.086973
20
68.005356
30
0.0
0
VERTEX
100
AcDbVertex
100
AcDb2dVertex
8
COFFR
10
62.756509
20
67.605281
30
0.0
0
VERTEX
100
AcDbVertex
100
AcDb2dVertex
8
COFFR
10
61.426517
20
67.197442
30
0.0
0
VERTEX
100
AcDbVertex
100
AcDb2dVertex
8
COFFR
10
60.096641
20
66.781467
30
0.0
0
VERTEX
100
AcDbVertex
100
AcDb2dVertex
8
COFFR
10
58.766924
20
66.356861
30
0.0
0
VERTEX
100
AcDbVertex
100
AcDb2dVertex
8
COFFR
10
57.43694
20
65.924437
30
0.0
0
VERTEX
100
AcDbVertex
100
AcDb2dVertex
8
COFFR
10
56.107329
20
65.483065
30
0.0
0
VERTEX
100
AcDbVertex
100
AcDb2dVertex
8
COFFR
10
54.777698
20
65.032786
30
0.0
0
VERTEX
100
AcDbVertex
100
AcDb2dVertex
8
COFFR
10
53.448061
20
64.573623
30
0.0
0
VERTEX
100
AcDbVertex
100
AcDb2dVertex
8
COFFR
10
52.117935
20
64.107065
30
0.0
0
VERTEX
100
AcDbVertex
100
AcDb2dVertex
8
COFFR
10
50.788795
20
63.630128
30
0.0
0
VERTEX
100
AcDbVertex
100
AcDb2dVertex
8
COFFR
10
49.460235
20
63.140991
30
0.0
0
VERTEX
100
AcDbVertex
100
AcDb2dVertex
8
COFFR
10
48.132272
20
62.637804
30
0.0
0
VERTEX
100
AcDbVertex
100
AcDb2dVertex
8
COFFR
10
46.804107
20
62.12115
30
0.0
0
VERTEX
100
AcDbVertex
100
AcDb2dVertex
8
COFFR
10
45.476869
20
61.588213
30
0.0
0
VERTEX
100
AcDbVertex
100
AcDb2dVertex
8
COFFR
10
44.149862
20
61.038235
30
0.0
0
VERTEX
100
AcDbVertex
100
AcDb2dVertex
8
COFFR
10
42.82313
20
60.470367
30
0.0
0
VERTEX
100
AcDbVertex
100
AcDb2dVertex
8
COFFR
10
41.495695
20
59.886731
30
0.0
0
VERTEX
100
AcDbVertex
100
AcDb2dVertex
8
COFFR
10
40.16948
20
59.283651
30
0.0
0
VERTEX
100
AcDbVertex
100
AcDb2dVertex
8
COFFR
10
38.84361
20
58.660006
30
0.0
0
VERTEX
100
AcDbVertex
100
AcDb2dVertex
8
COFFR
10
37.518031
20
58.014885
30
0.0
0
VERTEX
100
AcDbVertex
100
AcDb2dVertex
8
COFFR
10
36.191541
20
57.35103
30
0.0
0
VERTEX
100
AcDbVertex
100
AcDb2dVertex
8
COFFR
10
34.86677
20
56.663285
30
0.0
0
VERTEX
100
AcDbVertex
100
AcDb2dVertex
8
COFFR
10
33.542616
20
55.949655
30
0.0
0
VERTEX
100
AcDbVertex
100
AcDb2dVertex
8
COFFR
10
32.21917
20
55.207942
30
0.0
0
VERTEX
100
AcDbVertex
100
AcDb2dVertex
8
COFFR
10
30.895
20
54.440283
30
0.0
0
VERTEX
100
AcDbVertex
100
AcDb2dVertex
8
COFFR
10
29.571681
20
53.644149
30
0.0
0
VERTEX
100
AcDbVertex
100
AcDb2dVertex
8
COFFR
10
28.247867
20
52.820962
30
0.0
0
VERTEX
100
AcDbVertex
100
AcDb2dVertex
8
COFFR
10
26.923194
20
51.973352
30
0.0
0
VERTEX
100
AcDbVertex
100
AcDb2dVertex
8
COFFR
10
25.598549
20
51.101305
30
0.0
0
VERTEX
100
AcDbVertex
100
AcDb2dVertex
8
COFFR
10
24.274359
20
50.203437
30
0.0
0
VERTEX
100
AcDbVertex
100
AcDb2dVertex
8
COFFR
10
22.951572
20
49.275467
30
0.0
0
VERTEX
100
AcDbVertex
100
AcDb2dVertex
8
COFFR
10
21.62884
20
48.31709
30
0.0
0
VERTEX
100
AcDbVertex
100
AcDb2dVertex
8
COFFR
10
20.3078
20
47.323193
30
0.0
0
SEQEND
0
POLYLINE
5
 503
100
AcDbEntity
8
COFFR
66
 1
100
AcDb2dPolyline
70
 0
0
VERTEX
100
AcDbVertex
100
AcDb2dVertex
8
COFFR
10
525.030058
20
3.93331
30
0.0
0
VERTEX
100
AcDbVertex
100
AcDb2dVertex
8
COFFR
10
523.701738
20
3.842607
30
0.0
0
VERTEX
100
AcDbVertex
100
AcDb2dVertex
8
COFFR
10
522.36473
20
3.765963
30
0.0
0
VERTEX
100
AcDbVertex
100
AcDb2dVertex
8
COFFR
10
521.026097
20
3.708341
30
0.0
0
VERTEX
100
AcDbVertex
100
AcDb2dVertex
8
COFFR
10
519.693597
20
3.650675
30
0.0
0
VERTEX
100
AcDbVertex
100
AcDb2dVertex
8
COFFR
10
518.361097
20
3.593008
30
0.0
0
VERTEX
100
AcDbVertex
100
AcDb2dVertex
8
COFFR
10
517.028598
20
3.535338
30
0.0
0
VERTEX
100
AcDbVertex
100
AcDb2dVertex
8
COFFR
10
515.691666
20
3.491436
30
0.0
0
VERTEX
100
AcDbVertex
100
AcDb2dVertex
8
COFFR
10
514.357914
20
3.451398
30
0.0
0
VERTEX
100
AcDbVertex
100
AcDb2dVertex
8
COFFR
10
513.024109
20
3.415407
30
0.0
0
VERTEX
100
AcDbVertex
100
AcDb2dVertex
8
COFFR
10
511.690454
20
3.382994
30
0.0
0
VERTEX
100
AcDbVertex
100
AcDb2dVertex
8
COFFR
10
510.356752
20
3.35431
30
0.0
0
VERTEX
100
AcDbVertex
100
AcDb2dVertex
8
COFFR
10
509.02319
20
3.328916
30
0.0
0
VERTEX
100
AcDbVertex
100
AcDb2dVertex
8
COFFR
10
507.689589
20
3.306937
30
0.0
0
VERTEX
100
AcDbVertex
100
AcDb2dVertex
8
COFFR
10
506.356117
20
3.287973
30
0.0
0
VERTEX
100
AcDbVertex
100
AcDb2dVertex
8
COFFR
10
505.02261
20
3.272129
30
0.0
0
VERTEX
100
AcDbVertex
100
AcDb2dVertex
8
COFFR
10
503.689222
20
3.259039
30
0.0
0
VERTEX
100
AcDbVertex
100
AcDb2dVertex
8
COFFR
10
502.355802
20
3.248801
30
0.0
0
VERTEX
100
AcDbVertex
100
AcDb2dVertex
8
COFFR
10
501.022492
20
3.241075
30
0.0
0
VERTEX
100
AcDbVertex
100
AcDb2dVertex
8
COFFR
10
499.689154
20
3.235947
30
0.0
0
VERTEX
100
AcDbVertex
100
AcDb2dVertex
8
COFFR
10
498.355919
20
3.233097
30
0.0
0
VERTEX
100
AcDbVertex
100
AcDb2dVertex
8
COFFR
10
497.022662
20
3.232594
30
0.0
0
VERTEX
100
AcDbVertex
100
AcDb2dVertex
8
COFFR
10
495.690501
20
3.234147
30
0.0
0
VERTEX
100
AcDbVertex
100
AcDb2dVertex
8
COFFR
10
494.358715
20
3.237914
30
0.0
0
VERTEX
100
AcDbVertex
100
AcDb2dVertex
8
COFFR
10
493.026795
20
3.24348
30
0.0
0
VERTEX
100
AcDbVertex
100
AcDb2dVertex
8
COFFR
10
491.694877
20
3.250851
30
0.0
0
VERTEX
100
AcDbVertex
100
AcDb2dVertex
8
COFFR
10
490.362881
20
3.259783
30
0.0
0
VERTEX
100
AcDbVertex
100
AcDb2dVertex
8
COFFR
10
489.030776
20
3.269941
30
0.0
0
VERTEX
100
AcDbVertex
100
AcDb2dVertex
8
COFFR
10
487.698816
20
3.281774
30
0.0
0
VERTEX
100
AcDbVertex
100
AcDb2dVertex
8
COFFR
10
486.366969
20
3.295631
30
0.0
0
VERTEX
100
AcDbVertex
100
AcDb2dVertex
8
COFFR
10
485.035129
20
3.311535
30
0.0
0
VERTEX
100
AcDbVertex
100
AcDb2dVertex
8
COFFR
10
483.703534
20
3.330245
30
0.0
0
VERTEX
100
AcDbVertex
100
AcDb2dVertex
8
COFFR
10
482.371676
20
3.350947
30
0.0
0
VERTEX
100
AcDbVertex
100
AcDb2dVertex
8
COFFR
10
481.039783
20
3.37353
30
0.0
0
VERTEX
100
AcDbVertex
100
AcDb2dVertex
8
COFFR
10
479.707749
20
3.397556
30
0.0
0
VERTEX
100
AcDbVertex
100
AcDb2dVertex
8
COFFR
10
478.375634
20
3.422776
30
0.0
0
VERTEX
100
AcDbVertex
100
AcDb2dVertex
8
COFFR
10
477.043385
20
3.448776
30
0.0
0
VERTEX
100
AcDbVertex
100
AcDb2dVertex
8
COFFR
10
475.711043
20
3.475265
30
0.0
0
VERTEX
100
AcDbVertex
100
AcDb2dVertex
8
COFFR
10
474.378594
20
3.501915
30
0.0
0
VERTEX
100
AcDbVertex
100
AcDb2dVertex
8
COFFR
10
473.045967
20
3.528171
30
0.0
0
VERTEX
100
AcDbVertex
100
AcDb2dVertex
8
COFFR
10
471.713428
20
3.554306
30
0.0
0
VERTEX
100
AcDbVertex
100
AcDb2dVertex
8
COFFR
10
470.38089
20
3.580321
30
0.0
0
VERTEX
100
AcDbVertex
100
AcDb2dVertex
8
COFFR
10
469.048371
20
3.606277
30
0.0
0
VERTEX
100
AcDbVertex
100
AcDb2dVertex
8
COFFR
10
467.715917
20
3.632378
30
0.0
0
VERTEX
100
AcDbVertex
100
AcDb2dVertex
8
COFFR
10
466.383419
20
3.658484
30
0.0
0
VERTEX
100
AcDbVertex
100
AcDb2dVertex
8
COFFR
10
465.050918
20
3.684588
30
0.0
0
VERTEX
100
AcDbVertex
100
AcDb2dVertex
8
COFFR
10
463.718418
20
3.710692
30
0.0
0
VERTEX
100
AcDbVertex
100
AcDb2dVertex
8
COFFR
10
462.385915
20
3.736785
30
0.0
0
VERTEX
100
AcDbVertex
100
AcDb2dVertex
8
COFFR
10
461.053414
20
3.762877
30
0.0
0
VERTEX
100
AcDbVertex
100
AcDb2dVertex
8
COFFR
10
459.720913
20
3.788965
30
0.0
0
VERTEX
100
AcDbVertex
100
AcDb2dVertex
8
COFFR
10
458.388413
20
3.815053
30
0.0
0
VERTEX
100
AcDbVertex
100
AcDb2dVertex
8
COFFR
10
457.055912
20
3.841139
30
0.0
0
VERTEX
100
AcDbVertex
100
AcDb2dVertex
8
COFFR
10
455.723413
20
3.867228
30
0.0
0
VERTEX
100
AcDbVertex
100
AcDb2dVertex
8
COFFR
10
454.390914
20
3.893319
30
0.0
0
VERTEX
100
AcDbVertex
100
AcDb2dVertex
8
COFFR
10
453.058416
20
3.919415
30
0.0
0
VERTEX
100
AcDbVertex
100
AcDb2dVertex
8
COFFR
10
451.725917
20
3.945516
30
0.0
0
VERTEX
100
AcDbVertex
100
AcDb2dVertex
8
COFFR
10
450.393419
20
3.971621
30
0.0
0
VERTEX
100
AcDbVertex
100
AcDb2dVertex
8
COFFR
10
449.060918
20
3.997725
30
0.0
0
VERTEX
100
AcDbVertex
100
AcDb2dVertex
8
COFFR
10
447.728418
20
4.023829
30
0.0
0
VERTEX
100
AcDbVertex
100
AcDb2dVertex
8
COFFR
10
446.395915
20
4.049923
30
0.0
0
VERTEX
100
AcDbVertex
100
AcDb2dVertex
8
COFFR
10
445.063414
20
4.076015
30
0.0
0
VERTEX
100
AcDbVertex
100
AcDb2dVertex
8
COFFR
10
443.730913
20
4.102102
30
0.0
0
VERTEX
100
AcDbVertex
100
AcDb2dVertex
8
COFFR
10
442.398413
20
4.128191
30
0.0
0
VERTEX
100
AcDbVertex
100
AcDb2dVertex
8
COFFR
10
441.065912
20
4.154276
30
0.0
0
VERTEX
100
AcDbVertex
100
AcDb2dVertex
8
COFFR
10
439.733413
20
4.180366
30
0.0
0
VERTEX
100
AcDbVertex
100
AcDb2dVertex
8
COFFR
10
438.400914
20
4.206456
30
0.0
0
VERTEX
100
AcDbVertex
100
AcDb2dVertex
8
COFFR
10
437.068416
20
4.232552
30
0.0
0
VERTEX
100
AcDbVertex
100
AcDb2dVertex
8
COFFR
10
435.73593
20
4.258693
30
0.0
0
VERTEX
100
AcDbVertex
100
AcDb2dVertex
8
COFFR
10
434.403426
20
4.28482
30
0.0
0
VERTEX
100
AcDbVertex
100
AcDb2dVertex
8
COFFR
10
433.070914
20
4.310911
30
0.0
0
VERTEX
100
AcDbVertex
100
AcDb2dVertex
8
COFFR
10
431.738403
20
4.336967
30
0.0
0
VERTEX
100
AcDbVertex
100
AcDb2dVertex
8
COFFR
10
430.405827
20
4.362787
30
0.0
0
VERTEX
100
AcDbVertex
100
AcDb2dVertex
8
COFFR
10
429.073358
20
4.388704
30
0.0
0
VERTEX
100
AcDbVertex
100
AcDb2dVertex
8
COFFR
10
427.740933
20
4.414854
30
0.0
0
VERTEX
100
AcDbVertex
100
AcDb2dVertex
8
COFFR
10
426.408538
20
4.441328
30
0.0
0
VERTEX
100
AcDbVertex
100
AcDb2dVertex
8
COFFR
10
425.076284
20
4.468565
30
0.0
0
VERTEX
100
AcDbVertex
100
AcDb2dVertex
8
COFFR
10
423.743859
20
4.496037
30
0.0
0
VERTEX
100
AcDbVertex
100
AcDb2dVertex
8
COFFR
10
422.411374
20
4.523553
30
0.0
0
VERTEX
100
AcDbVertex
100
AcDb2dVertex
8
COFFR
10
421.078823
20
4.550912
30
0.0
0
VERTEX
100
AcDbVertex
100
AcDb2dVertex
8
COFFR
10
419.746117
20
4.577633
30
0.0
0
VERTEX
100
AcDbVertex
100
AcDb2dVertex
8
COFFR
10
418.413493
20
4.603968
30
0.0
0
VERTEX
100
AcDbVertex
100
AcDb2dVertex
8
COFFR
10
417.080853
20
4.62987
30
0.0
0
VERTEX
100
AcDbVertex
100
AcDb2dVertex
8
COFFR
10
415.748227
20
4.655382
30
0.0
0
VERTEX
100
AcDbVertex
100
AcDb2dVertex
8
COFFR
10
414.415615
20
4.680546
30
0.0
0
VERTEX
100
AcDbVertex
100
AcDb2dVertex
8
COFFR
10
413.082991
20
4.705326
30
0.0
0
VERTEX
100
AcDbVertex
100
AcDb2dVertex
8
COFFR
10
411.750352
20
4.729673
30
0.0
0
VERTEX
100
AcDbVertex
100
AcDb2dVertex
8
COFFR
10
410.417721
20
4.753615
30
0.0
0
VERTEX
100
AcDbVertex
100
AcDb2dVertex
8
COFFR
10
409.085077
20
4.777109
30
0.0
0
VERTEX
100
AcDbVertex
100
AcDb2dVertex
8
COFFR
10
407.752438
20
4.800172
30
0.0
0
VERTEX
100
AcDbVertex
100
AcDb2dVertex
8
COFFR
10
406.419781
20
4.822749
30
0.0
0
VERTEX
100
AcDbVertex
100
AcDb2dVertex
8
COFFR
10
405.087132
20
4.844866
30
0.0
0
VERTEX
100
AcDbVertex
100
AcDb2dVertex
8
COFFR
10
403.754463
20
4.866456
30
0.0
0
VERTEX
100
AcDbVertex
100
AcDb2dVertex
8
COFFR
10
402.421807
20
4.887565
30
0.0
0
VERTEX
100
AcDbVertex
100
AcDb2dVertex
8
COFFR
10
401.089136
20
4.908144
30
0.0
0
VERTEX
100
AcDbVertex
100
AcDb2dVertex
8
COFFR
10
399.756477
20
4.928228
30
0.0
0
VERTEX
100
AcDbVertex
100
AcDb2dVertex
8
COFFR
10
398.423804
20
4.947776
30
0.0
0
VERTEX
100
AcDbVertex
100
AcDb2dVertex
8
COFFR
10
397.091139
20
4.966813
30
0.0
0
VERTEX
100
AcDbVertex
100
AcDb2dVertex
8
COFFR
10
395.758456
20
4.985283
30
0.0
0
VERTEX
100
AcDbVertex
100
AcDb2dVertex
8
COFFR
10
394.425785
20
5.003222
30
0.0
0
VERTEX
100
AcDbVertex
100
AcDb2dVertex
8
COFFR
10
393.093094
20
5.020568
30
0.0
0
VERTEX
100
AcDbVertex
100
AcDb2dVertex
8
COFFR
10
391.760417
20
5.037366
30
0.0
0
VERTEX
100
AcDbVertex
100
AcDb2dVertex
8
COFFR
10
390.427724
20
5.053566
30
0.0
0
VERTEX
100
AcDbVertex
100
AcDb2dVertex
8
COFFR
10
389.095045
20
5.069209
30
0.0
0
VERTEX
100
AcDbVertex
100
AcDb2dVertex
8
COFFR
10
387.762349
20
5.084245
30
0.0
0
VERTEX
100
AcDbVertex
100
AcDb2dVertex
8
COFFR
10
386.429667
20
5.098719
30
0.0
0
VERTEX
100
AcDbVertex
100
AcDb2dVertex
8
COFFR
10
385.096969
20
5.112578
30
0.0
0
VERTEX
100
AcDbVertex
100
AcDb2dVertex
8
COFFR
10
383.764286
20
5.125868
30
0.0
0
VERTEX
100
AcDbVertex
100
AcDb2dVertex
8
COFFR
10
382.431571
20
5.138492
30
0.0
0
VERTEX
100
AcDbVertex
100
AcDb2dVertex
8
COFFR
10
381.098892
20
5.150562
30
0.0
0
VERTEX
100
AcDbVertex
100
AcDb2dVertex
8
COFFR
10
379.766203
20
5.162044
30
0.0
0
VERTEX
100
AcDbVertex
100
AcDb2dVertex
8
COFFR
10
378.433529
20
5.172986
30
0.0
0
VERTEX
100
AcDbVertex
100
AcDb2dVertex
8
COFFR
10
377.100896
20
5.183517
30
0.0
0
VERTEX
100
AcDbVertex
100
AcDb2dVertex
8
COFFR
10
375.768175
20
5.193364
30
0.0
0
VERTEX
100
AcDbVertex
100
AcDb2dVertex
8
COFFR
10
374.43539
20
5.202325
30
0.0
0
VERTEX
100
AcDbVertex
100
AcDb2dVertex
8
COFFR
10
373.102588
20
5.21035
30
0.0
0
VERTEX
100
AcDbVertex
100
AcDb2dVertex
8
COFFR
10
371.769635
20
5.216971
30
0.0
0
VERTEX
100
AcDbVertex
100
AcDb2dVertex
8
COFFR
10
370.436836
20
5.222665
30
0.0
0
VERTEX
100
AcDbVertex
100
AcDb2dVertex
8
COFFR
10
369.104058
20
5.227496
30
0.0
0
VERTEX
100
AcDbVertex
100
AcDb2dVertex
8
COFFR
10
367.771346
20
5.231671
30
0.0
0
VERTEX
100
AcDbVertex
100
AcDb2dVertex
8
COFFR
10
366.438728
20
5.23548
30
0.0
0
VERTEX
100
AcDbVertex
100
AcDb2dVertex
8
COFFR
10
365.106069
20
5.238795
30
0.0
0
VERTEX
100
AcDbVertex
100
AcDb2dVertex
8
COFFR
10
363.773399
20
5.241582
30
0.0
0
VERTEX
100
AcDbVertex
100
AcDb2dVertex
8
COFFR
10
362.44074
20
5.243877
30
0.0
0
VERTEX
100
AcDbVertex
100
AcDb2dVertex
8
COFFR
10
361.108049
20
5.24558
30
0.0
0
VERTEX
100
AcDbVertex
100
AcDb2dVertex
8
COFFR
10
359.775391
20
5.246793
30
0.0
0
VERTEX
100
AcDbVertex
100
AcDb2dVertex
8
COFFR
10
358.442724
20
5.247487
30
0.0
0
VERTEX
100
AcDbVertex
100
AcDb2dVertex
8
COFFR
10
357.110073
20
5.247714
30
0.0
0
VERTEX
100
AcDbVertex
100
AcDb2dVertex
8
COFFR
10
355.777586
20
5.247447
30
0.0
0
VERTEX
100
AcDbVertex
100
AcDb2dVertex
8
COFFR
10
354.445228
20
5.246739
30
0.0
0
VERTEX
100
AcDbVertex
100
AcDb2dVertex
8
COFFR
10
353.112878
20
5.245568
30
0.0
0
VERTEX
100
AcDbVertex
100
AcDb2dVertex
8
COFFR
10
351.780511
20
5.243983
30
0.0
0
VERTEX
100
AcDbVertex
100
AcDb2dVertex
8
COFFR
10
350.44815
20
5.241968
30
0.0
0
VERTEX
100
AcDbVertex
100
AcDb2dVertex
8
COFFR
10
349.115775
20
5.239566
30
0.0
0
VERTEX
100
AcDbVertex
100
AcDb2dVertex
8
COFFR
10
347.783405
20
5.236759
30
0.0
0
VERTEX
100
AcDbVertex
100
AcDb2dVertex
8
COFFR
10
346.451022
20
5.233589
30
0.0
0
VERTEX
100
AcDbVertex
100
AcDb2dVertex
8
COFFR
10
345.118645
20
5.23004
30
0.0
0
VERTEX
100
AcDbVertex
100
AcDb2dVertex
8
COFFR
10
343.786253
20
5.226155
30
0.0
0
VERTEX
100
AcDbVertex
100
AcDb2dVertex
8
COFFR
10
342.453865
20
5.221923
30
0.0
0
VERTEX
100
AcDbVertex
100
AcDb2dVertex
8
COFFR
10
341.121463
20
5.217386
30
0.0
0
VERTEX
100
AcDbVertex
100
AcDb2dVertex
8
COFFR
10
339.789064
20
5.212536
30
0.0
0
VERTEX
100
AcDbVertex
100
AcDb2dVertex
8
COFFR
10
338.456654
20
5.207409
30
0.0
0
VERTEX
100
AcDbVertex
100
AcDb2dVertex
8
COFFR
10
337.124246
20
5.201996
30
0.0
0
VERTEX
100
AcDbVertex
100
AcDb2dVertex
8
COFFR
10
335.791826
20
5.196332
30
0.0
0
VERTEX
100
AcDbVertex
100
AcDb2dVertex
8
COFFR
10
334.45941
20
5.19041
30
0.0
0
VERTEX
100
AcDbVertex
100
AcDb2dVertex
8
COFFR
10
333.126982
20
5.184266
30
0.0
0
VERTEX
100
AcDbVertex
100
AcDb2dVertex
8
COFFR
10
331.794554
20
5.177897
30
0.0
0
VERTEX
100
AcDbVertex
100
AcDb2dVertex
8
COFFR
10
330.462116
20
5.171334
30
0.0
0
VERTEX
100
AcDbVertex
100
AcDb2dVertex
8
COFFR
10
329.129654
20
5.164656
30
0.0
0
VERTEX
100
AcDbVertex
100
AcDb2dVertex
8
COFFR
10
327.797218
20
5.157777
30
0.0
0
VERTEX
100
AcDbVertex
100
AcDb2dVertex
8
COFFR
10
326.464793
20
5.150668
30
0.0
0
VERTEX
100
AcDbVertex
100
AcDb2dVertex
8
COFFR
10
325.132359
20
5.143352
30
0.0
0
VERTEX
100
AcDbVertex
100
AcDb2dVertex
8
COFFR
10
323.800018
20
5.135542
30
0.0
0
VERTEX
100
AcDbVertex
100
AcDb2dVertex
8
COFFR
10
322.467507
20
5.12777
30
0.0
0
VERTEX
100
AcDbVertex
100
AcDb2dVertex
8
COFFR
10
321.134917
20
5.120276
30
0.0
0
VERTEX
100
AcDbVertex
100
AcDb2dVertex
8
COFFR
10
319.80227
20
5.113237
30
0.0
0
VERTEX
100
AcDbVertex
100
AcDb2dVertex
8
COFFR
10
318.469409
20
5.107318
30
0.0
0
VERTEX
100
AcDbVertex
100
AcDb2dVertex
8
COFFR
10
317.136758
20
5.101866
30
0.0
0
VERTEX
100
AcDbVertex
100
AcDb2dVertex
8
COFFR
10
315.804159
20
5.096721
30
0.0
0
VERTEX
100
AcDbVertex
100
AcDb2dVertex
8
COFFR
10
314.471635
20
5.091651
30
0.0
0
VERTEX
100
AcDbVertex
100
AcDb2dVertex
8
COFFR
10
313.139276
20
5.086142
30
0.0
0
VERTEX
100
AcDbVertex
100
AcDb2dVertex
8
COFFR
10
311.806823
20
5.080491
30
0.0
0
VERTEX
100
AcDbVertex
100
AcDb2dVertex
8
COFFR
10
310.47437
20
5.074693
30
0.0
0
VERTEX
100
AcDbVertex
100
AcDb2dVertex
8
COFFR
10
309.141905
20
5.068785
30
0.0
0
VERTEX
100
AcDbVertex
100
AcDb2dVertex
8
COFFR
10
307.809406
20
5.062875
30
0.0
0
VERTEX
100
AcDbVertex
100
AcDb2dVertex
8
COFFR
10
306.476932
20
5.056885
30
0.0
0
VERTEX
100
AcDbVertex
100
AcDb2dVertex
8
COFFR
10
305.14446
20
5.050806
30
0.0
0
VERTEX
100
AcDbVertex
100
AcDb2dVertex
8
COFFR
10
303.811988
20
5.04464
30
0.0
0
VERTEX
100
AcDbVertex
100
AcDb2dVertex
8
COFFR
10
302.479521
20
5.038374
30
0.0
0
VERTEX
100
AcDbVertex
100
AcDb2dVertex
8
COFFR
10
301.147051
20
5.032016
30
0.0
0
VERTEX
100
AcDbVertex
100
AcDb2dVertex
8
COFFR
10
299.814583
20
5.025557
30
0.0
0
VERTEX
100
AcDbVertex
100
AcDb2dVertex
8
COFFR
10
298.482114
20
5.019003
30
0.0
0
VERTEX
100
AcDbVertex
100
AcDb2dVertex
8
COFFR
10
297.149647
20
5.012347
30
0.0
0
VERTEX
100
AcDbVertex
100
AcDb2dVertex
8
COFFR
10
295.817178
20
5.005592
30
0.0
0
VERTEX
100
AcDbVertex
100
AcDb2dVertex
8
COFFR
10
294.484713
20
4.998731
30
0.0
0
VERTEX
100
AcDbVertex
100
AcDb2dVertex
8
COFFR
10
293.152246
20
4.991767
30
0.0
0
VERTEX
100
AcDbVertex
100
AcDb2dVertex
8
COFFR
10
291.819781
20
4.984692
30
0.0
0
VERTEX
100
AcDbVertex
100
AcDb2dVertex
8
COFFR
10
290.487317
20
4.977508
30
0.0
0
VERTEX
100
AcDbVertex
100
AcDb2dVertex
8
COFFR
10
289.154857
20
4.9702
30
0.0
0
VERTEX
100
AcDbVertex
100
AcDb2dVertex
8
COFFR
10
287.822396
20
4.962771
30
0.0
0
VERTEX
100
AcDbVertex
100
AcDb2dVertex
8
COFFR
10
286.48994
20
4.955205
30
0.0
0
VERTEX
100
AcDbVertex
100
AcDb2dVertex
8
COFFR
10
285.157482
20
4.947509
30
0.0
0
VERTEX
100
AcDbVertex
100
AcDb2dVertex
8
COFFR
10
283.825028
20
4.939671
30
0.0
0
VERTEX
100
AcDbVertex
100
AcDb2dVertex
8
COFFR
10
282.492571
20
4.931697
30
0.0
0
VERTEX
100
AcDbVertex
100
AcDb2dVertex
8
COFFR
10
281.160119
20
4.923575
30
0.0
0
VERTEX
100
AcDbVertex
100
AcDb2dVertex
8
COFFR
10
279.827665
20
4.915313
30
0.0
0
VERTEX
100
AcDbVertex
100
AcDb2dVertex
8
COFFR
10
278.495214
20
4.906895
30
0.0
0
VERTEX
100
AcDbVertex
100
AcDb2dVertex
8
COFFR
10
277.162762
20
4.898331
30
0.0
0
VERTEX
100
AcDbVertex
100
AcDb2dVertex
8
COFFR
10
275.830319
20
4.889588
30
0.0
0
VERTEX
100
AcDbVertex
100
AcDb2dVertex
8
COFFR
10
274.497867
20
4.880699
30
0.0
0
VERTEX
100
AcDbVertex
100
AcDb2dVertex
8
COFFR
10
273.165417
20
4.871654
30
0.0
0
VERTEX
100
AcDbVertex
100
AcDb2dVertex
8
COFFR
10
271.832965
20
4.86246
30
0.0
0
VERTEX
100
AcDbVertex
100
AcDb2dVertex
8
COFFR
10
270.500495
20
4.853173
30
0.0
0
VERTEX
100
AcDbVertex
100
AcDb2dVertex
8
COFFR
10
269.168064
20
4.843672
30
0.0
0
VERTEX
100
AcDbVertex
100
AcDb2dVertex
8
COFFR
10
267.835658
20
4.833879
30
0.0
0
VERTEX
100
AcDbVertex
100
AcDb2dVertex
8
COFFR
10
266.503262
20
4.823764
30
0.0
0
VERTEX
100
AcDbVertex
100
AcDb2dVertex
8
COFFR
10
265.170926
20
4.813139
30
0.0
0
VERTEX
100
AcDbVertex
100
AcDb2dVertex
8
COFFR
10
263.838531
20
4.802189
30
0.0
0
VERTEX
100
AcDbVertex
100
AcDb2dVertex
8
COFFR
10
262.506127
20
4.790941
30
0.0
0
VERTEX
100
AcDbVertex
100
AcDb2dVertex
8
COFFR
10
261.173699
20
4.779471
30
0.0
0
VERTEX
100
AcDbVertex
100
AcDb2dVertex
8
COFFR
10
259.841232
20
4.767898
30
0.0
0
VERTEX
100
AcDbVertex
100
AcDb2dVertex
8
COFFR
10
258.508786
20
4.756158
30
0.0
0
VERTEX
100
AcDbVertex
100
AcDb2dVertex
8
COFFR
10
257.176344
20
4.744238
30
0.0
0
VERTEX
100
AcDbVertex
100
AcDb2dVertex
8
COFFR
10
255.843901
20
4.73214
30
0.0
0
VERTEX
100
AcDbVertex
100
AcDb2dVertex
8
COFFR
10
254.511472
20
4.719825
30
0.0
0
VERTEX
100
AcDbVertex
100
AcDb2dVertex
8
COFFR
10
253.179032
20
4.707321
30
0.0
0
VERTEX
100
AcDbVertex
100
AcDb2dVertex
8
COFFR
10
251.846598
20
4.694615
30
0.0
0
VERTEX
100
AcDbVertex
100
AcDb2dVertex
8
COFFR
10
250.514159
20
4.681718
30
0.0
0
VERTEX
100
AcDbVertex
100
AcDb2dVertex
8
COFFR
10
249.181726
20
4.668615
30
0.0
0
VERTEX
100
AcDbVertex
100
AcDb2dVertex
8
COFFR
10
247.849287
20
4.655323
30
0.0
0
VERTEX
100
AcDbVertex
100
AcDb2dVertex
8
COFFR
10
246.516851
20
4.641829
30
0.0
0
VERTEX
100
AcDbVertex
100
AcDb2dVertex
8
COFFR
10
245.184411
20
4.628151
30
0.0
0
VERTEX
100
AcDbVertex
100
AcDb2dVertex
8
COFFR
10
243.851974
20
4.614279
30
0.0
0
VERTEX
100
AcDbVertex
100
AcDb2dVertex
8
COFFR
10
242.519532
20
4.600225
30
0.0
0
VERTEX
100
AcDbVertex
100
AcDb2dVertex
8
COFFR
10
241.187095
20
4.585976
30
0.0
0
VERTEX
100
AcDbVertex
100
AcDb2dVertex
8
COFFR
10
239.854653
20
4.571546
30
0.0
0
VERTEX
100
AcDbVertex
100
AcDb2dVertex
8
COFFR
10
238.522215
20
4.556924
30
0.0
0
VERTEX
100
AcDbVertex
100
AcDb2dVertex
8
COFFR
10
237.189773
20
4.542123
30
0.0
0
VERTEX
100
AcDbVertex
100
AcDb2dVertex
8
COFFR
10
235.857335
20
4.527129
30
0.0
0
VERTEX
100
AcDbVertex
100
AcDb2dVertex
8
COFFR
10
234.524893
20
4.511956
30
0.0
0
VERTEX
100
AcDbVertex
100
AcDb2dVertex
8
COFFR
10
233.192455
20
4.496592
30
0.0
0
VERTEX
100
AcDbVertex
100
AcDb2dVertex
8
COFFR
10
231.860011
20
4.481053
30
0.0
0
VERTEX
100
AcDbVertex
100
AcDb2dVertex
8
COFFR
10
230.527571
20
4.465329
30
0.0
0
VERTEX
100
AcDbVertex
100
AcDb2dVertex
8
COFFR
10
229.195126
20
4.449435
30
0.0
0
VERTEX
100
AcDbVertex
100
AcDb2dVertex
8
COFFR
10
227.862681
20
4.433368
30
0.0
0
VERTEX
100
AcDbVertex
100
AcDb2dVertex
8
COFFR
10
226.530235
20
4.417134
30
0.0
0
VERTEX
100
AcDbVertex
100
AcDb2dVertex
8
COFFR
10
225.197793
20
4.400721
30
0.0
0
VERTEX
100
AcDbVertex
100
AcDb2dVertex
8
COFFR
10
223.865347
20
4.384142
30
0.0
0
VERTEX
100
AcDbVertex
100
AcDb2dVertex
8
COFFR
10
222.532905
20
4.367382
30
0.0
0
VERTEX
100
AcDbVertex
100
AcDb2dVertex
8
COFFR
10
221.200457
20
4.350461
30
0.0
0
VERTEX
100
AcDbVertex
100
AcDb2dVertex
8
COFFR
10
219.868011
20
4.333372
30
0.0
0
VERTEX
100
AcDbVertex
100
AcDb2dVertex
8
COFFR
10
218.53556
20
4.316131
30
0.0
0
VERTEX
100
AcDbVertex
100
AcDb2dVertex
8
COFFR
10
217.203111
20
4.298732
30
0.0
0
VERTEX
100
AcDbVertex
100
AcDb2dVertex
8
COFFR
10
215.870655
20
4.281196
30
0.0
0
VERTEX
100
AcDbVertex
100
AcDb2dVertex
8
COFFR
10
214.5382
20
4.26352
30
0.0
0
VERTEX
100
AcDbVertex
100
AcDb2dVertex
8
COFFR
10
213.20574
20
4.245721
30
0.0
0
VERTEX
100
AcDbVertex
100
AcDb2dVertex
8
COFFR
10
211.873277
20
4.227807
30
0.0
0
VERTEX
100
AcDbVertex
100
AcDb2dVertex
8
COFFR
10
210.540815
20
4.209775
30
0.0
0
VERTEX
100
AcDbVertex
100
AcDb2dVertex
8
COFFR
10
209.208356
20
4.191617
30
0.0
0
VERTEX
100
AcDbVertex
100
AcDb2dVertex
8
COFFR
10
207.875894
20
4.173339
30
0.0
0
VERTEX
100
AcDbVertex
100
AcDb2dVertex
8
COFFR
10
206.543437
20
4.15493
30
0.0
0
VERTEX
100
AcDbVertex
100
AcDb2dVertex
8
COFFR
10
205.210975
20
4.136401
30
0.0
0
VERTEX
100
AcDbVertex
100
AcDb2dVertex
8
COFFR
10
203.878515
20
4.11775
30
0.0
0
VERTEX
100
AcDbVertex
100
AcDb2dVertex
8
COFFR
10
202.546051
20
4.098986
30
0.0
0
VERTEX
100
AcDbVertex
100
AcDb2dVertex
8
COFFR
10
201.213589
20
4.080105
30
0.0
0
VERTEX
100
AcDbVertex
100
AcDb2dVertex
8
COFFR
10
199.881121
20
4.061123
30
0.0
0
VERTEX
100
AcDbVertex
100
AcDb2dVertex
8
COFFR
10
198.548654
20
4.042042
30
0.0
0
VERTEX
100
AcDbVertex
100
AcDb2dVertex
8
COFFR
10
197.216182
20
4.022873
30
0.0
0
VERTEX
100
AcDbVertex
100
AcDb2dVertex
8
COFFR
10
195.883706
20
4.003629
30
0.0
0
VERTEX
100
AcDbVertex
100
AcDb2dVertex
8
COFFR
10
194.551231
20
3.984306
30
0.0
0
VERTEX
100
AcDbVertex
100
AcDb2dVertex
8
COFFR
10
193.218757
20
3.964904
30
0.0
0
VERTEX
100
AcDbVertex
100
AcDb2dVertex
8
COFFR
10
191.886281
20
3.945428
30
0.0
0
VERTEX
100
AcDbVertex
100
AcDb2dVertex
8
COFFR
10
190.553807
20
3.92587
30
0.0
0
VERTEX
100
AcDbVertex
100
AcDb2dVertex
8
COFFR
10
189.221327
20
3.906251
30
0.0
0
VERTEX
100
AcDbVertex
100
AcDb2dVertex
8
COFFR
10
187.888844
20
3.886578
30
0.0
0
VERTEX
100
AcDbVertex
100
AcDb2dVertex
8
COFFR
10
186.556358
20
3.866863
30
0.0
0
VERTEX
100
AcDbVertex
100
AcDb2dVertex
8
COFFR
10
185.223866
20
3.847124
30
0.0
0
VERTEX
100
AcDbVertex
100
AcDb2dVertex
8
COFFR
10
183.891374
20
3.827358
30
0.0
0
VERTEX
100
AcDbVertex
100
AcDb2dVertex
8
COFFR
10
182.558881
20
3.807571
30
0.0
0
VERTEX
100
AcDbVertex
100
AcDb2dVertex
8
COFFR
10
181.226387
20
3.787766
30
0.0
0
VERTEX
100
AcDbVertex
100
AcDb2dVertex
8
COFFR
10
179.893891
20
3.767949
30
0.0
0
VERTEX
100
AcDbVertex
100
AcDb2dVertex
8
COFFR
10
178.561392
20
3.748128
30
0.0
0
VERTEX
100
AcDbVertex
100
AcDb2dVertex
8
COFFR
10
177.22889
20
3.728313
30
0.0
0
VERTEX
100
AcDbVertex
100
AcDb2dVertex
8
COFFR
10
175.896386
20
3.708509
30
0.0
0
VERTEX
100
AcDbVertex
100
AcDb2dVertex
8
COFFR
10
174.563878
20
3.688731
30
0.0
0
VERTEX
100
AcDbVertex
100
AcDb2dVertex
8
COFFR
10
173.231369
20
3.668982
30
0.0
0
VERTEX
100
AcDbVertex
100
AcDb2dVertex
8
COFFR
10
171.898854
20
3.649279
30
0.0
0
VERTEX
100
AcDbVertex
100
AcDb2dVertex
8
COFFR
10
170.566338
20
3.629625
30
0.0
0
VERTEX
100
AcDbVertex
100
AcDb2dVertex
8
COFFR
10
169.233798
20
3.610095
30
0.0
0
VERTEX
100
AcDbVertex
100
AcDb2dVertex
8
COFFR
10
167.901284
20
3.590608
30
0.0
0
VERTEX
100
AcDbVertex
100
AcDb2dVertex
8
COFFR
10
166.568771
20
3.571161
30
0.0
0
VERTEX
100
AcDbVertex
100
AcDb2dVertex
8
COFFR
10
165.236259
20
3.551754
30
0.0
0
VERTEX
100
AcDbVertex
100
AcDb2dVertex
8
COFFR
10
163.903807
20
3.532196
30
0.0
0
VERTEX
100
AcDbVertex
100
AcDb2dVertex
8
COFFR
10
162.571237
20
3.512857
30
0.0
0
VERTEX
100
AcDbVertex
100
AcDb2dVertex
8
COFFR
10
161.238603
20
3.493933
30
0.0
0
VERTEX
100
AcDbVertex
100
AcDb2dVertex
8
COFFR
10
159.905933
20
3.475536
30
0.0
0
VERTEX
100
AcDbVertex
100
AcDb2dVertex
8
COFFR
10
158.573099
20
3.458174
30
0.0
0
VERTEX
100
AcDbVertex
100
AcDb2dVertex
8
COFFR
10
157.240426
20
3.441348
30
0.0
0
VERTEX
100
AcDbVertex
100
AcDb2dVertex
8
COFFR
10
155.907787
20
3.424954
30
0.0
0
VERTEX
100
AcDbVertex
100
AcDb2dVertex
8
COFFR
10
154.575208
20
3.408806
30
0.0
0
VERTEX
100
AcDbVertex
100
AcDb2dVertex
8
COFFR
10
153.242745
20
3.392541
30
0.0
0
VERTEX
100
AcDbVertex
100
AcDb2dVertex
8
COFFR
10
151.910216
20
3.376366
30
0.0
0
VERTEX
100
AcDbVertex
100
AcDb2dVertex
8
COFFR
10
150.57768
20
3.360303
30
0.0
0
VERTEX
100
AcDbVertex
100
AcDb2dVertex
8
COFFR
10
149.24514
20
3.344366
30
0.0
0
VERTEX
100
AcDbVertex
100
AcDb2dVertex
8
COFFR
10
147.912565
20
3.328661
30
0.0
0
VERTEX
100
AcDbVertex
100
AcDb2dVertex
8
COFFR
10
146.580012
20
3.31312
30
0.0
0
VERTEX
100
AcDbVertex
100
AcDb2dVertex
8
COFFR
10
145.247451
20
3.297767
30
0.0
0
VERTEX
100
AcDbVertex
100
AcDb2dVertex
8
COFFR
10
143.914894
20
3.282592
30
0.0
0
VERTEX
100
AcDbVertex
100
AcDb2dVertex
8
COFFR
10
142.582328
20
3.267621
30
0.0
0
VERTEX
100
AcDbVertex
100
AcDb2dVertex
8
COFFR
10
141.249765
20
3.252846
30
0.0
0
VERTEX
100
AcDbVertex
100
AcDb2dVertex
8
COFFR
10
139.917192
20
3.238296
30
0.0
0
VERTEX
100
AcDbVertex
100
AcDb2dVertex
8
COFFR
10
138.584622
20
3.223962
30
0.0
0
VERTEX
100
AcDbVertex
100
AcDb2dVertex
8
COFFR
10
137.252042
20
3.209879
30
0.0
0
VERTEX
100
AcDbVertex
100
AcDb2dVertex
8
COFFR
10
135.919464
20
3.196036
30
0.0
0
VERTEX
100
AcDbVertex
100
AcDb2dVertex
8
COFFR
10
134.586875
20
3.18247
30
0.0
0
VERTEX
100
AcDbVertex
100
AcDb2dVertex
8
COFFR
10
133.254289
20
3.169171
30
0.0
0
VERTEX
100
AcDbVertex
100
AcDb2dVertex
8
COFFR
10
131.92169
20
3.156179
30
0.0
0
VERTEX
100
AcDbVertex
100
AcDb2dVertex
8
COFFR
10
130.589093
20
3.143487
30
0.0
0
VERTEX
100
AcDbVertex
100
AcDb2dVertex
8
COFFR
10
129.256483
20
3.131138
30
0.0
0
VERTEX
100
AcDbVertex
100
AcDb2dVertex
8
COFFR
10
127.923865
20
3.119153
30
0.0
0
VERTEX
100
AcDbVertex
100
AcDb2dVertex
8
COFFR
10
126.59126
20
3.107493
30
0.0
0
VERTEX
100
AcDbVertex
100
AcDb2dVertex
8
COFFR
10
125.25863
20
3.096236
30
0.0
0
VERTEX
100
AcDbVertex
100
AcDb2dVertex
8
COFFR
10
123.925993
20
3.085406
30
0.0
0
VERTEX
100
AcDbVertex
100
AcDb2dVertex
8
COFFR
10
122.593347
20
3.075027
30
0.0
0
VERTEX
100
AcDbVertex
100
AcDb2dVertex
8
COFFR
10
121.260717
20
3.06505
30
0.0
0
VERTEX
100
AcDbVertex
100
AcDb2dVertex
8
COFFR
10
119.928056
20
3.055575
30
0.0
0
VERTEX
100
AcDbVertex
100
AcDb2dVertex
8
COFFR
10
118.595383
20
3.046634
30
0.0
0
VERTEX
100
AcDbVertex
100
AcDb2dVertex
8
COFFR
10
117.262694
20
3.03828
30
0.0
0
VERTEX
100
AcDbVertex
100
AcDb2dVertex
8
COFFR
10
115.930014
20
3.030484
30
0.0
0
VERTEX
100
AcDbVertex
100
AcDb2dVertex
8
COFFR
10
114.597319
20
3.023295
30
0.0
0
VERTEX
100
AcDbVertex
100
AcDb2dVertex
8
COFFR
10
113.264629
20
3.016694
30
0.0
0
VERTEX
100
AcDbVertex
100
AcDb2dVertex
8
COFFR
10
111.931957
20
3.010626
30
0.0
0
VERTEX
100
AcDbVertex
100
AcDb2dVertex
8
COFFR
10
110.599344
20
3.004907
30
0.0
0
VERTEX
100
AcDbVertex
100
AcDb2dVertex
8
COFFR
10
109.266561
20
3.000065
30
0.0
0
VERTEX
100
AcDbVertex
100
AcDb2dVertex
8
COFFR
10
107.933641
20
2.996527
30
0.0
0
VERTEX
100
AcDbVertex
100
AcDb2dVertex
8
COFFR
10
106.600578
20
2.994736
30
0.0
0
VERTEX
100
AcDbVertex
100
AcDb2dVertex
8
COFFR
10
105.267531
20
2.994834
30
0.0
0
VERTEX
100
AcDbVertex
100
AcDb2dVertex
8
COFFR
10
103.935589
20
2.99666
30
0.0
0
VERTEX
100
AcDbVertex
100
AcDb2dVertex
8
COFFR
10
102.603499
20
2.999757
30
0.0
0
VERTEX
100
AcDbVertex
100
AcDb2dVertex
8
COFFR
10
101.271265
20
3.003681
30
0.0
0
VERTEX
100
AcDbVertex
100
AcDb2dVertex
8
COFFR
10
99.938859
20
3.007894
30
0.0
0
VERTEX
100
AcDbVertex
100
AcDb2dVertex
8
COFFR
10
98.606536
20
3.012655
30
0.0
0
VERTEX
100
AcDbVertex
100
AcDb2dVertex
8
COFFR
10
97.274261
20
3.018116
30
0.0
0
VERTEX
100
AcDbVertex
100
AcDb2dVertex
8
COFFR
10
95.942026
20
3.024399
30
0.0
0
VERTEX
100
AcDbVertex
100
AcDb2dVertex
8
COFFR
10
94.609792
20
3.031507
30
0.0
0
VERTEX
100
AcDbVertex
100
AcDb2dVertex
8
COFFR
10
93.277607
20
3.039589
30
0.0
0
VERTEX
100
AcDbVertex
100
AcDb2dVertex
8
COFFR
10
91.945434
20
3.048688
30
0.0
0
VERTEX
100
AcDbVertex
100
AcDb2dVertex
8
COFFR
10
90.613268
20
3.058822
30
0.0
0
VERTEX
100
AcDbVertex
100
AcDb2dVertex
8
COFFR
10
89.281038
20
3.069793
30
0.0
0
VERTEX
100
AcDbVertex
100
AcDb2dVertex
8
COFFR
10
87.948956
20
3.08206
30
0.0
0
VERTEX
100
AcDbVertex
100
AcDb2dVertex
8
COFFR
10
86.616956
20
3.095877
30
0.0
0
VERTEX
100
AcDbVertex
100
AcDb2dVertex
8
COFFR
10
85.285074
20
3.111608
30
0.0
0
VERTEX
100
AcDbVertex
100
AcDb2dVertex
8
COFFR
10
83.953242
20
3.129412
30
0.0
0
VERTEX
100
AcDbVertex
100
AcDb2dVertex
8
COFFR
10
82.621167
20
3.148534
30
0.0
0
VERTEX
100
AcDbVertex
100
AcDb2dVertex
8
COFFR
10
81.288777
20
3.167996
30
0.0
0
VERTEX
100
AcDbVertex
100
AcDb2dVertex
8
COFFR
10
79.956063
20
3.186796
30
0.0
0
VERTEX
100
AcDbVertex
100
AcDb2dVertex
8
COFFR
10
78.623069
20
3.204065
30
0.0
0
VERTEX
100
AcDbVertex
100
AcDb2dVertex
8
COFFR
10
77.290513
20
3.221162
30
0.0
0
VERTEX
100
AcDbVertex
100
AcDb2dVertex
8
COFFR
10
75.958463
20
3.239651
30
0.0
0
VERTEX
100
AcDbVertex
100
AcDb2dVertex
8
COFFR
10
74.62691
20
3.261075
30
0.0
0
VERTEX
100
AcDbVertex
100
AcDb2dVertex
8
COFFR
10
73.295651
20
3.286347
30
0.0
0
VERTEX
100
AcDbVertex
100
AcDb2dVertex
8
COFFR
10
71.964553
20
3.315966
30
0.0
0
VERTEX
100
AcDbVertex
100
AcDb2dVertex
8
COFFR
10
70.63346
20
3.349947
30
0.0
0
VERTEX
100
AcDbVertex
100
AcDb2dVertex
8
COFFR
10
69.302402
20
3.388399
30
0.0
0
VERTEX
100
AcDbVertex
100
AcDb2dVertex
8
COFFR
10
67.971115
20
3.430611
30
0.0
0
VERTEX
100
AcDbVertex
100
AcDb2dVertex
8
COFFR
10
66.640163
20
3.477622
30
0.0
0
VERTEX
100
AcDbVertex
100
AcDb2dVertex
8
COFFR
10
65.309311
20
3.529742
30
0.0
0
VERTEX
100
AcDbVertex
100
AcDb2dVertex
8
COFFR
10
63.97856
20
3.587284
30
0.0
0
VERTEX
100
AcDbVertex
100
AcDb2dVertex
8
COFFR
10
62.647637
20
3.649716
30
0.0
0
VERTEX
100
AcDbVertex
100
AcDb2dVertex
8
COFFR
10
61.316938
20
3.717731
30
0.0
0
VERTEX
100
AcDbVertex
100
AcDb2dVertex
8
COFFR
10
59.986216
20
3.791259
30
0.0
0
VERTEX
100
AcDbVertex
100
AcDb2dVertex
8
COFFR
10
58.655384
20
3.869958
30
0.0
0
VERTEX
100
AcDbVertex
100
AcDb2dVertex
8
COFFR
10
57.324094
20
3.952414
30
0.0
0
VERTEX
100
AcDbVertex
100
AcDb2dVertex
8
COFFR
10
55.993763
20
4.041585
30
0.0
0
VERTEX
100
AcDbVertex
100
AcDb2dVertex
8
COFFR
10
54.664068
20
4.139446
30
0.0
0
VERTEX
100
AcDbVertex
100
AcDb2dVertex
8
COFFR
10
53.335085
20
4.248204
30
0.0
0
VERTEX
100
AcDbVertex
100
AcDb2dVertex
8
COFFR
10
52.0063
20
4.368476
30
0.0
0
VERTEX
100
AcDbVertex
100
AcDb2dVertex
8
COFFR
10
50.676777
20
4.497986
30
0.0
0
VERTEX
100
AcDbVertex
100
AcDb2dVertex
8
COFFR
10
49.345968
20
4.632755
30
0.0
0
VERTEX
100
AcDbVertex
100
AcDb2dVertex
8
COFFR
10
48.013831
20
4.768668
30
0.0
0
VERTEX
100
AcDbVertex
100
AcDb2dVertex
8
COFFR
10
46.680376
20
4.901639
30
0.0
0
VERTEX
100
AcDbVertex
100
AcDb2dVertex
8
COFFR
10
45.348013
20
5.035019
30
0.0
0
VERTEX
100
AcDbVertex
100
AcDb2dVertex
8
COFFR
10
44.016728
20
5.172151
30
0.0
0
VERTEX
100
AcDbVertex
100
AcDb2dVertex
8
COFFR
10
42.686398
20
5.315999
30
0.0
0
VERTEX
100
AcDbVertex
100
AcDb2dVertex
8
COFFR
10
41.356601
20
5.468218
30
0.0
0
VERTEX
100
AcDbVertex
100
AcDb2dVertex
8
COFFR
10
40.026806
20
5.628823
30
0.0
0
VERTEX
100
AcDbVertex
100
AcDb2dVertex
8
COFFR
10
38.696578
20
5.79648
30
0.0
0
VERTEX
100
AcDbVertex
100
AcDb2dVertex
8
COFFR
10
37.366284
20
5.970978
30
0.0
0
VERTEX
100
AcDbVertex
100
AcDb2dVertex
8
COFFR
10
36.035851
20
6.151889
30
0.0
0
VERTEX
100
AcDbVertex
100
AcDb2dVertex
8
COFFR
10
34.703844
20
6.334357
30
0.0
0
VERTEX
100
AcDbVertex
100
AcDb2dVertex
8
COFFR
10
33.370145
20
6.51314
30
0.0
0
VERTEX
100
AcDbVertex
100
AcDb2dVertex
8
COFFR
10
32.035672
20
6.685819
30
0.0
0
VERTEX
100
AcDbVertex
100
AcDb2dVertex
8
COFFR
10
30.696299
20
6.837266
30
0.0
0
VERTEX
100
AcDbVertex
100
AcDb2dVertex
8
COFFR
10
29.363826
20
6.988676
30
0.0
0
VERTEX
100
AcDbVertex
100
AcDb2dVertex
8
COFFR
10
28.034315
20
7.149306
30
0.0
0
VERTEX
100
AcDbVertex
100
AcDb2dVertex
8
COFFR
10
26.707347
20
7.32704
30
0.0
0
VERTEX
100
AcDbVertex
100
AcDb2dVertex
8
COFFR
10
25.388928
20
7.548248
30
0.0
0
VERTEX
100
AcDbVertex
100
AcDb2dVertex
8
COFFR
10
24.063258
20
7.790771
30
0.0
0
VERTEX
100
AcDbVertex
100
AcDb2dVertex
8
COFFR
10
22.737773
20
8.055035
30
0.0
0
VERTEX
100
AcDbVertex
100
AcDb2dVertex
8
COFFR
10
21.412605
20
8.342019
30
0.0
0
VERTEX
100
AcDbVertex
100
AcDb2dVertex
8
COFFR
10
20.088881
20
8.656165
30
0.0
0
SEQEND
0
POLYLINE
5
 503
100
AcDbEntity
8
COFFR
66
 1
100
AcDb2dPolyline
70
 0
0
VERTEX
100
AcDbVertex
100
AcDb2dVertex
8
COFFR
10
526.3375
20
4.088134
30
0.0
0
VERTEX
100
AcDbVertex
100
AcDb2dVertex
8
COFFR
10
533.0
20
2.9848
30
0.0
0
SEQEND
0
POLYLINE
5
 502
100
AcDbEntity
8
AXIS
66
 1
100
AcDb2dPolyline
70
 0
0
VERTEX
100
AcDbVertex
100
AcDb2dVertex
8
AXIS
10
112.000003
20
80.495334
30
0.0
0
VERTEX
100
AcDbVertex
100
AcDb2dVertex
8
AXIS
10
112.000003
20
0.010626
30
0.0
0
SEQEND
0
POLYLINE
5
 503
100
AcDbEntity
8
LONG
66
 1
100
AcDb2dPolyline
70
 1
0
VERTEX
100
AcDbVertex
100
AcDb2dVertex
8
LONG
10
108.000003
20
77.495334
30
0.0
0
VERTEX
100
AcDbVertex
100
AcDb2dVertex
8
LONG
10
116.000005
20
77.495334
30
0.0
0
VERTEX
100
AcDbVertex
100
AcDb2dVertex
8
LONG
10
116.000005
20
64.495334
30
0.0
0
VERTEX
100
AcDbVertex
100
AcDb2dVertex
8
LONG
10
108.000005
20
64.495334
30
0.0
0
SEQEND
0
POLYLINE
5
 503
100
AcDbEntity
8
LONG
66
 1
100
AcDb2dPolyline
70
 1
0
VERTEX
100
AcDbVertex
100
AcDb2dVertex
8
LONG
10
108.000003
20
3.010626
30
0.0
0
VERTEX
100
AcDbVertex
100
AcDb2dVertex
8
LONG
10
116.000005
20
3.010626
30
0.0
0
VERTEX
100
AcDbVertex
100
AcDb2dVertex
8
LONG
10
116.000005
20
16.010626
30
0.0
0
VERTEX
100
AcDbVertex
100
AcDb2dVertex
8
LONG
10
108.000005
20
16.010626
30
0.0
0
SEQEND
0
POLYLINE
5
 502
100
AcDbEntity
8
AXIS
66
 1
100
AcDb2dPolyline
70
 0
0
VERTEX
100
AcDbVertex
100
AcDb2dVertex
8
AXIS
10
324.999994
20
61.504187
30
0.0
0
VERTEX
100
AcDbVertex
100
AcDb2dVertex
8
AXIS
10
324.999994
20
2.143353
30
0.0
0
SEQEND
0
POLYLINE
5
 503
100
AcDbEntity
8
LONG
66
 1
100
AcDb2dPolyline
70
 1
0
VERTEX
100
AcDbVertex
100
AcDb2dVertex
8
LONG
10
320.999994
20
58.504187
30
0.0
0
VERTEX
100
AcDbVertex
100
AcDb2dVertex
8
LONG
10
328.999996
20
58.504187
30
0.0
0
VERTEX
100
AcDbVertex
100
AcDb2dVertex
8
LONG
10
328.999996
20
45.504187
30
0.0
0
VERTEX
100
AcDbVertex
100
AcDb2dVertex
8
LONG
10
320.999996
20
45.504187
30
0.0
0
SEQEND
0
POLYLINE
5
 503
100
AcDbEntity
8
LONG
66
 1
100
AcDb2dPolyline
70
 1
0
VERTEX
100
AcDbVertex
100
AcDb2dVertex
8
LONG
10
320.999994
20
5.143353
30
0.0
0
VERTEX
100
AcDbVertex
100
AcDb2dVertex
8
LONG
10
328.999996
20
5.143353
30
0.0
0
VERTEX
100
AcDbVertex
100
AcDb2dVertex
8
LONG
10
328.999996
20
18.143353
30
0.0
0
VERTEX
100
AcDbVertex
100
AcDb2dVertex
8
LONG
10
320.999996
20
18.143353
30
0.0
0
SEQEND
0
POLYLINE
5
 502
100
AcDbEntity
8
AXIS
66
 1
100
AcDb2dPolyline
70
 0
0
VERTEX
100
AcDbVertex
100
AcDb2dVertex
8
AXIS
10
136.999998
20
82.18488
30
0.0
0
VERTEX
100
AcDbVertex
100
AcDb2dVertex
8
AXIS
10
136.999998
20
0.209882
30
0.0
0
SEQEND
0
POLYLINE
5
 502
100
AcDbEntity
8
AXIS
66
 1
100
AcDb2dPolyline
70
 0
0
VERTEX
100
AcDbVertex
100
AcDb2dVertex
8
AXIS
10
120.499998
20
35.18488
30
0.0
0
VERTEX
100
AcDbVertex
100
AcDb2dVertex
8
AXIS
10
153.49999
20
35.18488
30
0.0
0
SEQEND
0
CIRCLE
5
 504
100
AcDbEntity
8
LONG
100
AcDbCircle
39
 0
10
136.999998
20
35.18488
30
0.0
40
16.5
0
CIRCLE
5
 504
100
AcDbEntity
8
TROU
100
AcDbCircle
39
 0
10
69.99998
20
36.461376
30
0.0
40
20.0
0
POLYLINE
5
 502
100
AcDbEntity
8
AXIS
66
 1
100
AcDb2dPolyline
70
 0
0
VERTEX
100
AcDbVertex
100
AcDb2dVertex
8
AXIS
10
49.99998
20
36.461376
30
0.0
0
VERTEX
100
AcDbVertex
100
AcDb2dVertex
8
AXIS
10
89.999989
20
36.461376
30
0.0
0
SEQEND
0
POLYLINE
5
 502
100
AcDbEntity
8
AXIS
66
 1
100
AcDb2dPolyline
70
 0
0
VERTEX
100
AcDbVertex
100
AcDb2dVertex
8
AXIS
10
69.99998
20
26.461376
30
0.0
0
VERTEX
100
AcDbVertex
100
AcDb2dVertex
8
AXIS
10
69.99998
20
46.461376
30
0.0
0
SEQEND
0
CIRCLE
5
 504
100
AcDbEntity
8
TROU
100
AcDbCircle
39
 0
10
210.000008
20
40.713423
30
0.0
40
22.5
0
POLYLINE
5
 502
100
AcDbEntity
8
AXIS
66
 1
100
AcDb2dPolyline
70
 0
0
VERTEX
100
AcDbVertex
100
AcDb2dVertex
8
AXIS
10
187.500008
20
40.713423
30
0.0
0
VERTEX
100
AcDbVertex
100
AcDb2dVertex
8
AXIS
10
232.500003
20
40.713423
30
0.0
0
SEQEND
0
POLYLINE
5
 502
100
AcDbEntity
8
AXIS
66
 1
100
AcDb2dPolyline
70
 0
0
VERTEX
100
AcDbVertex
100
AcDb2dVertex
8
AXIS
10
210.000008
20
29.463423
30
0.0
0
VERTEX
100
AcDbVertex
100
AcDb2dVertex
8
AXIS
10
210.000008
20
51.963423
30
0.0
0
SEQEND
0
CIRCLE
5
 504
100
AcDbEntity
8
TROU
100
AcDbCircle
39
 0
10
274.999993
20
36.6524
30
0.0
40
17.5
0
POLYLINE
5
 502
100
AcDbEntity
8
AXIS
66
 1
100
AcDb2dPolyline
70
 0
0
VERTEX
100
AcDbVertex
100
AcDb2dVertex
8
AXIS
10
257.499993
20
36.6524
30
0.0
0
VERTEX
100
AcDbVertex
100
AcDb2dVertex
8
AXIS
10
292.499996
20
36.6524
30
0.0
0
SEQEND
0
POLYLINE
5
 502
100
AcDbEntity
8
AXIS
66
 1
100
AcDb2dPolyline
70
 0
0
VERTEX
100
AcDbVertex
100
AcDb2dVertex
8
AXIS
10
274.999993
20
27.9024
30
0.0
0
VERTEX
100
AcDbVertex
100
AcDb2dVertex
8
AXIS
10
274.999993
20
45.4024
30
0.0
0
SEQEND
0
CIRCLE
5
 504
100
AcDbEntity
8
TROU
100
AcDbCircle
39
 0
10
359.999995
20
27.816619
30
0.0
40
12.0
0
POLYLINE
5
 502
100
AcDbEntity
8
AXIS
66
 1
100
AcDb2dPolyline
70
 0
0
VERTEX
100
AcDbVertex
100
AcDb2dVertex
8
AXIS
10
347.999995
20
27.816619
30
0.0
0
VERTEX
100
AcDbVertex
100
AcDb2dVertex
8
AXIS
10
372.0
20
27.816619
30
0.0
0
SEQEND
0
POLYLINE
5
 502
100
AcDbEntity
8
AXIS
66
 1
100
AcDb2dPolyline
70
 0
0
VERTEX
100
AcDbVertex
100
AcDb2dVertex
8
AXIS
10
359.999995
20
21.816619
30
0.0
0
VERTEX
100
AcDbVertex
100
AcDb2dVertex
8
AXIS
10
359.999995
20
33.816619
30
0.0
0
SEQEND
0
ENDSEC
0
EOF
